The Sweet


The Sweet



Партнеры
 
Till They Take My Heart Away1
 
Intro
E--------0------------------0--------------0-----------0------------0-------
B----4-----4-----4------4-----4-4--------------4-----4--------2-0---0---2---
G--4---4-----4-4------4---4-------4------4---4---4----------2-----2---2-----
D------------------------------------2--------------------------------------
A--------------------------------------4------------------0-----------------
E-0-----------------0-------------------------------------------------------

E--------0------------------0--------------0---2---0----------------0-------
B----4-----4-----4------4-4-0---4-----------------------------2-----0-------
G--4---4-----4-4------4-------4----------4---4---4----------2-----2---------
D------------------------------------2--------------------------------------
A--------------------------------------4------------------0-----------------
E-0-----------------0-------------------------------------------------------

1st Verse
E--------0------------------0----0---------0---2---0--------------------0-0-
B----4------------------4-------------------------------------------2-----0-
G--4---4--------------4---4--------------4---4---4--------------2-----------
D------------------------------------2--------------------0-0---------------
A--------------------------------------4------------------------------------
E-0-----------------0-------------------------------------------------------
I look into your eyes, So far away....

E--------0------------------0---------------------------------------0---0---
B----4-------4----------4-------4----------0---4---0----------------0-----2-
G--4---4-------4------4---4---4----------4---4---4--------------2-----------
D------------------------------------2--------------------0-0---------------
A--------------------------------------4------------------------------------
E-0-----------------0-------------------------------------------------------
There's trouble on your mind, You're loosing faith.

1st Refrain
E----------------------------------------------0-----------------------
B--------2--2--------2---------2-------------0---0---------5-4-----5---
G--------2--2--------2---------2-----------1-------1-------4-4-4-4-----
D-----2-------2--------------------------2---------------2-------------
A--0------------2----2---------2---------------------0-4---------------
E--------------------------------------0-------------------------------
Hey now, Let me hold you. It will be o.k.

E---------2---------------------------------------------------------
A-------2---2------------2---2--------------------------------------
D-----2-------2----------2---2--------------------------------------
G---2-----------2---------------------------------------------------
B-0----------------------2---2--------------------------------------
E-------------------------------------------------------------------
Cause I will love you, Till they take my heart away.

2nd Verse
E--------0------------------0-----------------------------------------0------
B----4-------4----------4-------4----------0---4---0--------------2-----2-0--
G--4---4-------4------4---4---4----------4---4---4--------------2---2--------
D------------------------------------2--------------------0-0----------------
A--------------------------------------4-------------------------------------
E-0-----------------0--------------------------------------------------------
Remember when you called, And said goodbye.

E--------0------------------0------------------0-----------------------0----
B------------4----------0-------0--------------0---0------------2---2--0--2-
G--------4-----4------4---4---4--------------4-4-4--------------2-----------
D----2---------------------------------2------------------0-0---------------
A----------------------------------------4----------------------------------
E-0-----------------0-------------------------------------------------------
You thought we've lost it all, And so did I.

2nd Refrain
E---------------------------------------------------
B--2---------2-----------------4----------5-4-----5-
G--1---------2-----------------4----------4-4-4-4-4-
D--2------------------------------------2-----------
A--0---------2-----------------4----0-4-----------4-
E---------------------------------------------------
Even if I lost you, It will be the same.






E----------------------------------------------------
B---------0-2---------------------2----2--2-----4----
G---------2-2---------------------2----2--2-----4----
D-----2----------------------------------------------
A-0-------------------------------0----2--2-----4----
E----------------------------------------------------
Cause I will love you, Till they take my heart a-

1st Chorus
E----------------------------------------------------------------
B--2----------2-------4-----------5-4-----5------------2---------
G--1----------2-------4-----------4-4-4-4-4------------1---------
D--2----------------------------2----------------------2---------
A--0----------2-------4-----0-4-----------4------------0---------
E----------------------------------------------------------------
way...Believe, I'm here to stay. Cause I will love you,

E-----------------------------
B---------2-------------------
G---------2-------------------
D-----------------------------
A---------2-------------------
E-----------------------------
Till they take my heart away.

3rd Verse
E--------0--------------------0----------------------------------0------
B----4-------4-----0------4-------4----------5-----5---------2----------
G--4---4-------4-4------4---4---4-4--------4-4-4-4-4-------2---2--------
D--------------------------------------2-------------0-0----------------
A----------------------------------------4------------------------------
E-0-------------------0-------------------------------------------------

E--------0------------------0----------------------------------------0--0-
B------------4----------0-------0--------------0------------------2--0----
G--------4-----4------4---4---4--------------4---4------4------2----------
D----2---------------------------------2------------------0-0-------------
A----------------------------------------4--------------------------------
E-0-----------------0-----------------------------------------------------
Now we're stronger than before, We made it through.
E--------0------------------0---------------------------------0------------
B----4---------4--------4-------4-----------4---4----------2----2----------
G--4---4-------4------4---4--------------4--4-4-4--------2-2------2--------
D------------------------------------2--------------0-0--------------------
A--------------------------------------4-----------------------------------
E-0-----------------0------------------------------------------------------
I've never felt so sure, Because of you.

3rd Refrain
E---------------------------------------0---------------------------------
B---------2--2--2---2------------------0-0--------5-4-----5-------------2-
G-------1-2--2--2---------------------1----1------4-4-4-4-4----------1--2-
D----2-------------------------------2----------2-----------------2--2----
A-0----------2------2-----------------------0-4-----------0----0----------
E----------------------------------0--------------------------------------
Hey now,are you lis'ning.Can you hear me say, coz I will Love you,

E---------------------------
B----------2----2--2-----4--
G----------2----2--2-----4--
D---------------------------
A----------0----2--2-----4--
E---------------------------
Till they take my heart a-

2nd Chorus
E----------------------------------------------------------------
B--2----------2-------4-----------5-4-----5------------2---------
G--1----------2-------4-----------4-4-4-4-4------------1---------
D--2----------------------------2----------------------2---------
A--0----------2-------4-----0-4-----------4------------0---------
E----------------------------------------------------------------
way...Believe, I'm here to stay. Cause I will love you,

E-----------------------------
B---------2-------------------
G---------2-------------------
D-----------------------------
A---------2-------------------
E-----------------------------
Till they take my heart away.



Bridge (right after 2nd Chorus)
E------------------------------2-4-6---------------
B--7--5-7p5---4----2--2--4--4--4-4-6--6-7-6-4-4-4--
G--7--4-----4-4----2--2--4--4--3-4-6--6-----4-4-4--
D--0---------------2-----------4-6-6---------------
A-----4-------4-------2--2--4--2-4-8--6-----4-2-4--
E----------------------------------6---------------

3rd Chorus
E-2-------4----------6--------------------------
B-4-------4----------6--------6-7-6-----------4-
G-3-------4----------6--------6---------------4-
D-4-------6----------6--------------------------
A-2-------4----------8--------6---------------4-
E--------------------6--------------------------
Believe, in me, I'm here to stay. Coz I will love you,
E-------------------------2----4-----6--------
B---------4-------------4-4----4-----6--6-7-6-
G---------4-------------4-3----4-----6--6-----
D-------------------------4----6-----6--------
A---------2-------------4-2----4-----8--6-----
E------------------------------------6--------
Till they take my heart away, away, away.......
E-----------------------------
B-------4-------------------4-
G-------4-------------------4-
D-----------------------------
A-------2-------------------4-
E-----------------------------
I will love you, till they take my heart away.

Outro
|e|------2----------2----------4---------4-----2-
|B|-------2--------4-4----------4-------4-4----2-
|G|----3---3-3----3---3-------4--4-----4---4---3-
|D|---4-----4----4-----4-----4--------4-----4--4-
|A|--4----------2-----------6--------4---------4-
|E|-2----------2---------2-4-------4-X---------2-

    Lirycs SweetLirycs SweetLirycs Sweet
    The Sweet
      



    Написать администратору сайта
     

     

Российский фан сайт The Sweet 2008 © 2017