The Sweet


The Sweet



Партнеры
 
Till They Take My Heart Away
 
Standard Tuning:

E E2 B B2 Bsus C#m7 A Abm7 F#m7

E--0---2---2---2----2-----4---0---4---2----
B--0---5---4---2----5-----5---2---4---2----
G--1---4---4---4----4-----4---2---4---2----
D--2---2---4---4----4-----6---2---4---2----
A--2---2---2---2----2-----4---0---6---4----
E--0---0--------------------------4---2----

D2 C# Bbm7 Ebm7 F#

E-5---4---6---6----2-----------
B-5---6---6---7----2-----------
G-6---6---6---6----3-----------
D-7---6---6---8----4-----------
A-5---4---8---6----4-----------
E---------6--------2-----------


Intro: 2x

E-----------0-------|----------0-------|-----------4-|----------5----
B-------4-------4---|------4-------4---|--------5----|------5--------
G-----4---4---4---4-|----4---4---4---4-|-----4-------|--------6------
D-------------------|------------------|---6---6-----|----7----------
A-------------------|------------------|-4-----------|--5------------
E--0----------------|-0----------------|-------------|---------------

Verse I:

E2 E2 C#m7 D2
I look into your eyes, So far away....

E2 E2 C#m7 D2
There's trouble on your mind, You're loosing faith.


Pre-chorus:

A B Abm7 C#m7
Hey now, Let me hold you. It will be o.k.

F#m7 B B2
Cause I will love you, Till they take my heart away.


Verse II:

E2 E2 C#m7 D2
Remember when you called, And said goodbye.

E2 E2 C#m7 D2
You thought we've lost it all, And so did I.


Pre-Chorus:

A B Abm7 C#m7
Even if I lost you, It will be the same.

F#m7 B Bsus A---
Cause I will love you, Till they take my heart away.



Chorus:

B Abm7 C#m7 F#m7
Believe, I'm here to stay. Cause I will love you,

B B2 E*---
Till they take my heart away.


Adlib: same as intro


Verse III:

E2 E2 C#m7 D2
Now we're stronger than before, We made it through.

E2 E2 C#m7 D2
I've never felt so sure, Because of you.


Pre-chorus:

A B
Hey now,are you lis'ning.

Abm7 C#m7 F#m7
Can you hear me say, coz I will Love you,

B Bsus A---
Till they take my heart away.


Chorus:

B Abm7 C#m7 F#m7
Believe, I'm here to stay. Cause I will love you,

B B2
Till they take my heart away.


Adlib:

D2 - D2 - C#m7 - C#m7

F#m7 - Abm7 - C#


Last Chorus:

B C# Bbm7 Ebm7
Believe, in me, I'm here to stay.

Abm7
Coz I will love you,

C# C#sus
Till they take my heart away

B C# Bbm7 Ebm7
away...... away..... away....


Abm7
Coz I will love you,

C# C#2
Till they take my heart away


Outro:

F# - F# - B - C#

F# (hold)

    Lirycs SweetLirycs SweetLirycs Sweet
    The Sweet
      



    Написать администратору сайта
     

     

Российский фан сайт The Sweet 2008 © 2017