The Sweet


The Sweet



Партнеры
 
The Greatest Veiw5
 
Intro Riff:
e--------------------------------------------------
B--------------------------------------------------
G-----2-1-0----------------------5--------5--------
D---2--------x-5-4-2--0-2-3--0-3---3--0-3---3-2-0-2
A--------------------------------------------------
E-0------------------------------------------------

Verse (very Radiohead-ish):
strumming pattern not indicated, you lazy bastards!
e--0---------0--0--0--0----------------------------
B--2----4----2--1--2--0----------------------------
G--2----2----2--2--2--1----------------------------
D--2----2----2--2--2--2----------------------------
A--0----0----0--0--0--2----------------------------
E---------------------0----------------------------

e--0-----------------------------------------------
B--2----4------------------------------------------
G--2----2----3-------------------------------------
D--2----2----3--3-5--------------------------------
A--0----0----1--3-5--------------------------------
E---------------1-3--------------------------------

Pre-Chorus:
e--0-0-0--0----------0---2-------------------------
B--3-2-0--0-0h2p0----1---3-------------------------
G--2-2-2--2-------2--0---2-------------------------
D--2-2-2--2----------2---0-------------------------
A--0-0-0--0----------3-----------------------------
E--------------------------------------------------

Riff immediately preceding Chorus:
e--------------------------------------------------
B--10---10--10/9--9/7--7/5-------------------------
G--------------------------------------------------
D--------------------------------------------------
A--------------------------------------------------
E--------------------------------------------------

Chorus: (not sure about the second chord…)
e--0----4----2-------5-----------------------------
B--2----2----3----7--6-----------------------------
G--2----2----4----7--7-----------------------------
D--2----2----4----7--7-----------------------------
A--0----0----2----5--5-----------------------------
E--------------------------------------------------
"i’m watching you watch over me…”

Interlude thingy:
just mess around with the pre-chorus chords

    Lirycs SweetLirycs SweetLirycs Sweet
    The Sweet
      



    Написать администратору сайта
     

     

Российский фан сайт The Sweet 2008 © 2017