The Sweet


The Sweet



Партнеры
 
The Everlasting Gaze
 
song: The Everlasting Gaze

artist: Smashing Pumpkins

tab: THE EVERLASTING GAZE
Smashing Pumpkins
Machina: The Machines of God

TUNING: Down a whole step to D.. then put your guitar in Dropped D...
so actually the low E string is tuned down to a C.

intro
---------------------------------------------------
---------------------------------------------------
---------------------------------------------------
-----------------------------------------------12-
-----0-1---------------------0-1---------------12-
-0-0-----1--1-0----------0-0-----1--1-0--------12-


guitar 1 main riff
---------------------------------------------------
---------------------------------------------------
-------------------7-7-7~~-(7--7-7~)---------------
---------------------------------------------------
-----0-1-------------------------------------------
-0-0-----1--1-0------------------------------------

guitar 2 main riff
---------------------------------------------------
---------------------------------------------------
---------------------------------------------------
-------------------3-3-3----5-5-5------------------
-----0-1-----------3-3-3----5-5-5------------------
-0-0-----1--1-0----3-3-3----5-5-5------------------


guitar 1 second riff
---------------------------------------------------
---------------------------------------------------
---------------------------------------------------
---------------------------------------------------
-----0-1-------------------------------------------
-0-0-----5--5-3-------0-0-0-5~---------------------

guitar 2 second riff
---------------------------------------------------
---------------------------------------------------
---------------------------------------------------
-0-0-7-8-5--5-3~------0-0-0-5~---------------------
-0-0-7-8-5--5-3~------0-0-0-5~---------------------
-0-0-7-8-5--5-3~------0-0-0-5~---------------------



here is the barely audible guitar line thru all the fuzz and distortion

each seperate note is played 8 times
---------------------------------------------------
---------------------------------------------------
---------------------------------------------7~----
-3|5|0|0|3|5|0|0|0|0|3|5|0|0|3|3|0|0|3|5|0---------
-3|5|0|0|3|5|0|0|0|0|3|5|0|0|3|3|0|0|3|5|0---------
-3|5|0|0|3|5|0|0|0|0|3|5|0|0|3|3|0|0|3|5|0---------




then the repeating notes before the ending line
repeat 4 times

guitar 1 riff 3
---------------------------------------------------
---------------------------------------------------
---------------------------------------------------
12-12---12-12---12-12---12-12---12-12-12-12--------
12-12---12-12---12-12---12-12---12-12-12-12--------
12-12---12-12---12-12---12-12---12-12-12-12--------

guitar 2 riff 3
---------------------------------------------------
---------------------------------------------------
---------------------------------------------------
-0--0----0--0----0--0----0--0----0--0--0--0--------
-0--0----0--0----0--0----0--0----0--0--0--0--------
-0--0----0--0----0--0----0--0----0--0--0--0--------


and here is the cool ending riff.. both guitars tacet for the first 2
times, then the last 2 times, guitar2 plays riff3.

---------------------------------------------------
---------------------------------------------------
----------0h1p0------------------------------------
-0--0---0-------1-0---0---0-0----------------------
-0--0---------------3---------3-1-0----------------
-0--0----------------------------------------------

-------------------------------------------|-12---
-------------------------------------------|-12---
----------0h1p0----------------------------|-12---
-0-0----0-------1-0---0---0---0-1-0--------|-12---
-0-0----------------3-------3--------------|-12---
-0-0---------------------------------------|-12---

    Lirycs SweetLirycs SweetLirycs Sweet
    The Sweet
      



    Написать администратору сайта
     

     

Российский фан сайт The Sweet 2008 © 2017