The Sweet


The Sweet



Партнеры
 
The Door
 
The Door
Silverchair
Tuning = Drop D

Intro w/clean tone
E|--------------------|
B|--------------------|
G|---5-4-2--0-2-4-2-0-|
D|-0-0-0-0--0-0-0-0-0-|
A|-0------------------|
D|-0------------------|

Verse w/dist
E|--------------------|
B|--------------------|
G|---5-4-2--0-2-4-2-0-|
D|-0-0-0-0--0-0-0-0-0-|
A|-0------------------|
D|-0------------------|

Chorus w/dist
E|---------|---------|---------|-----|
B|---------|---------|---------|-----|
G|---------|---------|---------|-----|
D|-3/5-5-5-|-3/5-5-5-|-3/5-5-5-|-3/5-|
A|-3/5-5-5-|-3/5-5-5-|-3/5-5-5-|-3/5-|
D|-3/5-5-5-|-3/5-5-5-|-3/5-5-5-|-3/5-|

E|--------------------|--------------------|
B|--------------------|--------------------|
G|---5-4-2--0-2-4-2-0-|---5-4-2--0-2-4-2-0-|
D|-0-0-0-0--0-0-0-0-0-|-0-0-0-0--0-0-0-0-0-|
A|-0------------------|-0------------------|
D|-0------------------|-0------------------|

E|---------|---------|---------|-----|
B|---------|---------|---------|-----|
G|---------|---------|---------|-----|
D|-3/5-5-5-|-3/5-5-5-|-3/5-5-5-|-3/5-|
A|-3/5-5-5-|-3/5-5-5-|-3/5-5-5-|-3/5-|
D|-3/5-5-5-|-3/5-5-5-|-3/5-5-5-|-3/5-|

E|--------------------|--------------------|
B|--------------------|--------------------|
G|---5-4-2--0-2-4-2-0-|---5-4-2--0-2-4-2-0-|
D|-0-0-0-0--0-0-0-0-0-|-0-0-0-0--0-0-0-0-0-|
A|-0------------------|-0------------------|
D|-0------------------|-0------------------|

Verse 2 is the same as verse 1

Chorus 2
E|---------|---------|---------|-----|
B|---------|---------|---------|-----|
G|---------|---------|---------|-----|
D|-3/5-5-5-|-3/5-5-5-|-3/5-5-5-|-3/5-|
A|-3/5-5-5-|-3/5-5-5-|-3/5-5-5-|-3/5-|
D|-3/5-5-5-|-3/5-5-5-|-3/5-5-5-|-3/5-|

E|--------------------|--------------------|
B|--------------------|--------------------|
G|---5-4-2--0-2-4-2-0-|---5-4-2--0-2-4-2-0-|
D|-0-0-0-0--0-0-0-0-0-|-0-0-0-0--0-0-0-0-0-|
A|-0------------------|-0------------------|
D|-0------------------|-0------------------|

Then Daniel plays this the last bars of the Chorus
E|---------|---------|---------|-----|---------------|
B|---------|---------|---------|-----|----5--5--5--5-|
G|---------|---------|---------|-----|----5--5--5--5-|
D|-3/5-5-5-|-3/5-5-5-|-3/5-5-5-|-3/5-|-0--0--0--0--0-|
A|-3/5-5-5-|-3/5-5-5-|-3/5-5-5-|-3/5-|-0--0--0--0--0-|
D|-3/5-5-5-|-3/5-5-5-|-3/5-5-5-|-3/5-|-0--0--0--0--0-|

E|------------|------------------------------------------------|
B|------------|------------------------------------------------|
G|------------|-5--5-5-5-5---------------5-5-5-5-5-------------|
D|-5--5-5-3-3-|-0--0-0-0-0--5--5-5-3-3---0-0-0-0-0--5--5-5-3-3-|
A|-5--5-5-3-3-|-0--0-0-0-0--5--5-5-3-3---0-0-0-0-0--5--5-5-3-3-|
D|-5--5-5-3-3-|-0--0-0-0-0--5--5-5-3-3---0-0-0-0-0--5--5-5-3-3-|

E|---------------------------|
B|---------------------------|
G|-5--5-5-5-5----------------|
D|-0--0-0-0-0--5-5-X-3----3/-|
A|-0--0-0-0-0--5-5-X-3----3/-|
D|-0--0-0-0-0--5-5-X-3----3/-|

Verse 3 same as 1 and 2

(GTR 2) This is played a couple measures before the song is over
E|--------------------------|
B|--------------------------|
G|-5--5-5--5-5--5-5-5-5/75-|
D|--------------------------|
A|--------------------------|
D|--------------------------|

    Lirycs SweetLirycs SweetLirycs Sweet
    The Sweet
      



    Написать администратору сайта
     

     

Российский фан сайт The Sweet 2008 © 2017