The Sweet


The Sweet



Партнеры
 
Steam Will Rise
 
Main Riff
G-----------------------------------
D-----------------------------------
A--------2h3-3-3--------------------
E--5-5-5---------1-1-0-1-0-1-1------

Fill into Chorus
G-----------------------
D-----------------------
A-----------------------
E--3-3-3-3--2-2-2-2--1--

Chorus
G-----------------
D-----------------
A-----------------
E--5-5--3-3--1-1--

(Repeat Main)

Fill into Chorus
G---------------------------------------------------
D---------------------------------------------------
A----------2-1-------------4-3--------------1-------
E-3-3-3-3------1-3-3-3-3-3------1--3-3-3-3-------1--

(Repeat Chorus)

Bridge (Heavy Part)
G------------------------- (Repeat X4)
D------------------------- When at last A# hold and A------------1-1--1--3-1-- repeat next...
E--5-5--3-3---------------

G------------------------- you might want to add some octive's
D------------------------- in once awhile...sounds alright
A-------------------------
E-1-1-1-1-1-1-1-1-1-1-----

    Lirycs SweetLirycs SweetLirycs Sweet
    The Sweet
      



    Написать администратору сайта
     

     

Российский фан сайт The Sweet 2008 © 2017