The Sweet


The Sweet



Партнеры
 
Standard tuning2
 
Standard tuning: (EADGBE)

Intro:

E-3-----3-----------------|-3-----3----------3-
B-3-----3--1-1---0--------|-3-----3--1-1----0--
G-0-----0-----------------|-0-----0------------
D-2---0-------------------|-2---0---------2----
A-3--2-----0-0------0-2-3-|-3-2------0-0-------
E----------------3-3------|--------------------

Verse:

E-0--0--0--0--|-0--0--0--0---
B-3--3--1--3--|-3--3--1--0---
G-0--0--0--0--|-0--0--0--0---
D-2--0--2--0--|-2--0--2--2---
A-3--2--0--2--|-3--2--0--2---
E----------3--|----------0---

Refrain:

E--1--0--0-- |------1----1------
B--1--1--3-- |-----1-1---1------
G--2--0--0-- |----2---2--2------
D--3--2--0--play 3x |---3-------3------
A--3--3--2-- |--3--------3------
E--1-----3-- |-1---------1------

    Lirycs SweetLirycs SweetLirycs Sweet
    The Sweet
      



    Написать администратору сайта
     

     

Российский фан сайт The Sweet 2008 © 2017