The Sweet


The Sweet



Партнеры
 
Song Point Of View
 
S1: This song hasnt been featured yet and is correct..., Song-Point of View
Band-silverchair
Album-Neon Ballroom
Transcribed by : Aaron Irons

Tuning / G#-G#-C#-F#-A#-D# (low E tuned UP to G#, all the rest tuned down)

KEY
h - hammer on
p - pull off
x - scrape muted string
/ - slide up
- slide down
* - KILL NOTES!

[transcriber's note]
If this song is as hard as it was for me to tab, I imagine it will be even
harder for
other's to read from tab and play. Your pinky is really going to get a work out
on this
one! Also, for the verses it will take some practice arranging your fingers
into the right
chord formations. I have listed below what fingers correspond to what notes
(i = index, m = middle, p =pinky, r = ring).

|-0-0-2-2-3-5-| |-x-0-2-2-2-x-| |-x-0-2-2-1-3-|
i i m p i i i m r i p

Good luck! This song will take a LOT of practice (that is, if you can get it
tuned exactly
right to play along!)

____________________________________________________________________________________________

4x
|---5-------5p3----0---3------3-------||------------|
|-3---3-2--------2-0h1---1-0----1p0---||---0----2---|
|-2-----2----------2----------------2-||---2----2---|
|-2-----2----------2------------------||---2----2---|
|-0-----0----------0------------------||---0----0---|
|-0-----------------------------------||---0----0---|

Liberate the people that you hate
Then cut yourself again
Elevate then drop back down
And see which ones remain
Remember all that she can say
Is that she knows she wants it

GTR 1 2x 2x
|----------------------||----------------------------||----------------------|
|--8--8-8-8-7-5--5-----||----------------------------||--8--8-8-8-7-5--5-----|
|------------------/6--||-7--7--7--4---4--7--7-7--10-||------------------/6--|
|--5--5-5-5-4-2--2-----||-7--7--7--4---4--7--7-7--10-||--5--5-5-5-4-2--2-----|
|--0--0-0-0-0-0--0-/4--||-5--5--5--2---2--5--5-5--8--||--0--0-0-0-0-0--0-/4--|
|--0--0-0-0-0-0--0--0--||-5--5--5--2---2--5--5-5--8--||--0--0-0-0-0-0--0--0--|

GTR 2 2x 2x
|------------------------| |------------------------|
|------------------------| |------------------------|
|-2--2---2---2---2--2--2-| |-2--2---2---2---2--2--2-|
|-2--2---2---2---2--2--2-| |-2--2---2---2---2--2--2-|
|-0--0---0---0---0--0--0-| |-0--0---0---0---0--0--0-|
|-0--0---0---0---0--0--0-| |-0--0---0---0---0--0--0-|

|----------------------------||--------3--------3-3-3-3-3-||--------3--------3-3-3-|

|----------------------------||---------------------------||-----------------------|

|-7--7--7--4---4--7--7-7--10-||-2----x---2----x-----------||-2----x---2----x-------|

|-7--7--7--4---4--7--7-7--10-||-2--2-x---2--2-x-----------||-2--2-x---2--2-x-------|

|-5--5--5--2---2--5--5-5--8--||-0--0-x---0--0-x-----------||-0--0-x---0--0-x-------|

|-5--5--5--2---2--5--5-5--8--||-0--0-x---0--0-x-----------||-0--0-x---0--0-x-------|

* * * *

You'll make it through
With another point of view again
You'll make it through
With another point

|---5------------3-------3------||---5--------3-----------3-----|
|-3---3--2---0h1---1p0-----1p0--||-3---2--0h1---1p0---------0---|
|-2------2----------------------||-2---2------------2---2-----2-|
|-2------2----------------------||-2---2------------------------|
|-0-----------------------------||-0------------------0---------|
|-------------------------------||------------------------------|

GTR 2
|--------------------------------|
|------------------------8-------|
|--------------------------5-----|
|-----------------------7----7-7-|
|---------------------0----------|
|--------------------------------|


|---5-----0---3-------||---5-------0----3-------||------------|
|-3----2--0h1---1-0---||-3---3--2--0h1----1-0---||---0----2---|
|-2----2--2---------2-||-2------2--2----------2-||---2----2---|
|-2----2--2-----------||-2------2--2------------||---2----2---|
|-0-------0-----------||-0---------0------------||---0----0---|
|---------------------||------------------------||---0----0---|

Accusation, does yes mean no?
Or have you changed your mind?
Kill the nation before it grows
And be one of a kind
Remember all that she can say
Is that she knows she wants it

GTR 1 2x 2x
|----------------------||----------------------------||----------------------|
|--8--8-8-8-7-5--5-----||----------------------------||--8--8-8-8-7-5--5-----|
|------------------/6--||-7--7--7--4---4--7--7-7--10-||------------------/6--|
|--5--5-5-5-4-2--2-----||-7--7--7--4---4--7--7-7--10-||--5--5-5-5-4-2--2-----|
|--0--0-0-0-0-0--0-/4--||-5--5--5--2---2--5--5-5--8--||--0--0-0-0-0-0--0-/4--|
|--0--0-0-0-0-0--0--0--||-5--5--5--2---2--5--5-5--8--||--0--0-0-0-0-0--0--0--|

GTR 2 2x 2x
|------------------------| |------------------------|
|------------------------| |------------------------|
|-2--2---2---2---2--2--2-| |-2--2---2---2---2--2--2-|
|-2--2---2---2---2--2--2-| |-2--2---2---2---2--2--2-|
|-0--0---0---0---0--0--0-| |-0--0---0---0---0--0--0-|
|-0--0---0---0---0--0--0-| |-0--0---0---0---0--0--0-|

|----------------------------||---0-------||---0-------|
|----------------------------||---1-------||---1-------|
|-7--7--7--4---4--7--7-7--10-||---2---5---||---2---5---|
|-7--7--7--4---4--7--7-7--10-||---2---5---||---2---5---|
|-5--5--5--2---2--5--5-5--8--||---0---3---||---0---3---|
|-5--5--5--2---2--5--5-5--8--||---0---3---||---0---3---|

You'll make it through
With another point of view again
You'll make it through
With another point
Pretend the world's an ocean
Oh, I'm drowning

|--------3--------3-3-3-3-3-||--------3--------3-3-3-||---0-------||---0-------|

|---------------------------||-----------------------||---1-------||---1-------|

|-2--------2----------------||-2--------2------------||---2---5---||---2---5---|

|-2--2-x---2--2-x-----------||-2--2-x---2--2-x-------||---2---5---||---2---5---|

|-0--0-x---0--0-x-----------||-0--0-x---0--0-x-------||---0---3---||---0---3---|

|-0--0-x---0--0-x-----------||-0--0-x---0--0-x-------||---0---3---||---0---3---|

* * * *

Pretend that I'm pollution
Oh, I'm dying

|--------3--------3-3-3-3-3-||--------3--------3-3-3-||---0-------||---0-------|

|---------------------------||-----------------------||---1-------||---1-------|

|-2--------2----------------||-2--------2------------||---2---5---||---2---5---|

|-2--2-x---2--2-x-----------||-2--2-x---2--2-x-------||---2---5---||---2---5---|

|-0--0-x---0--0-x-----------||-0--0-x---0--0-x-------||---0---3---||---0---3---|

|-0--0-x---0--0-x-----------||-0--0-x---0--0-x-------||---0---3---||---0---3---|

* * * *

|---5--------5p3---0---3-----||---5--------5p3---0---3-----|
|-3---3-2--------2-0h1---1-0-||-3---3-2--------2-0h1---1-0-|
|-2-----2----------2---------||-2-----2----------2---------|
|-2-----2----------2---------||-2-----2----------2---------|
|-0-----0----------0---------||-0-----0----------0---------|
|-0--------------------------||-0--------------------------|

Pretend the steak's a cowboy
And the kiss will kill you

GTR 1 2x 2x
|----------------------||----------------------------||----------------------|
|--8--8-8-8-7-5--5-----||----------------------------||--8--8-8-8-7-5--5-----|
|------------------/6--||-7--7--7--4---4--7--7-7--10-||------------------/6--|
|--5--5-5-5-4-2--2-----||-7--7--7--4---4--7--7-7--10-||--5--5-5-5-4-2--2-----|
|--0--0-0-0-0-0--0-/4--||-5--5--5--2---2--5--5-5--8--||--0--0-0-0-0-0--0-/4--|
|--0--0-0-0-0-0--0--0--||-5--5--5--2---2--5--5-5--8--||--0--0-0-0-0-0--0--0--|

GTR 2 2x
|------------------------| |------------------------|
|------------------------| |------------------------|
|-2--2---2---2---2--2--2-| |-2--2---2---2---2--2--2-|
|-2--2---2---2---2--2--2-| |-2--2---2---2---2--2--2-|
|-0--0---0---0---0--0--0-| |-0--0---0---0---0--0--0-|
|-0--0---0---0---0--0--0-| |-0--0---0---0---0--0--0-|

|----------------------------|
|----------------------------|
|-7--7--7--4---4--7--7-7--10-|
|-7--7--7--4---4--7--7-7--10-|
|-5--5--5--2---2--5--5-5--8--|
|-5--5--5--2---2--5--5-5--8--|

|---5--------5p3---0---3-----3-------||---5--------5p3---0---3------0---|
|-3---3-2--------2-0h1---1-0---1-0---||-3---3-2--------2-0h1---1-0--0---|
|-2-----2----------2---------------2-||-2-----2----------2----------2---|
|-2-----2----------2-----------------||-2-----2----------2----------2---|
|-0-----0----------0-----------------||-0-----0----------0----------0---|
|-0----------------------------------||-0---------------------------0---|

You'll make it through
With another point of view again
You'll make it through
With another point

    Lirycs SweetLirycs SweetLirycs Sweet
    The Sweet
      



    Написать администратору сайта
     

     

Российский фан сайт The Sweet 2008 © 2017