The Sweet


The Sweet



Партнеры
 
Sleep All Day
 
Standard tuning: (EADGBE)

Intro:

E--2--2--0------|
B--2--3--0--3-2-|
G--2--2--0--0-0-|
D--0--4--2--2-2-|
A-----2--2--0-0-|
E--------0------|

Verse:

E--2--2--0------|
B--2--3--0--3-2-|
G--2--2--0--0-0-|
D--0--4--2--2-2-|
A-----2--2--0-0-|
E--------0------|

Chorus:

E--2--2--0------|
B--2--3--0--3-2-|
G--2--2--0--0-0-|
D--0--4--2--2-2-|
A-----2--2--0-0-|
E--------0------|

Verse:

E--2--2--0------|--0-----2----2-----------|
B--2--3--0--3-2-|--0--3--2---2------------|
G--2--2--0--0-0-|--0--0--2--2-------------|
D--0--4--2--2-2-|--2--0--0-0--------------|
A-----2--2--0-0-|--2--2-------------------|
E--------0------|--0--3-------------------|

Verse:

E--2--2--0------|--0-----2--2-|--0------------|
B--2--3--0--3-2-|--0--3--2--3-|--0--3-2-------|
G--2--2--0--0-0-|--0--0--2--2-|--0--0-0-------|
D--0--4--2--2-2-|--2--0--0--4-|--2--2-2-------|
A-----2--2--0-0-|--2--2-----2-|--2--0-0-------|
E--------0------|--0--3-------|--0------------|

=====()w&_17=====

    Lirycs SweetLirycs SweetLirycs Sweet
    The Sweet
      



    Написать администратору сайта
     

     

Российский фан сайт The Sweet 2008 © 2017