The Sweet


The Sweet



Партнеры
 
Slave
 
Slave - silverchair
tabbed by:joe truscott


play in Drop D

Riff A: (once)
A---------------------------------------------
D--4---4-4-4----3---3-3-3----4---4-4-4-4-4-1--


***rest for guitar (0:15 - 0:24)***


Riff B: (once)
A-------
D--0-4--


Riff C: (once)
A-------------------------------------------------
D--0--0-0-3---0--0-0-4---0--0-0-3---0--0-0-4-4-4--


Riff D: (once)
A-------------------------------------------
D--0--0-0-3---0--0-0-4---0--0-0-3---0--0-0--


Riff E: (twice)
A----------------------------------------
D--1--1-1-1--1-1-1-1--1-1--1-1-1--1-4-4--


Riff F: (once)
A---------------------------------------------
D--0--0-0-3---0--0-0-3---0--0-0-3---0--0-0-3--


Riff G: (once)
A-------------------------------------------
D--0--0-0-3---0--0-0-3---0--0-0-3---0-0-----


***brief pause (1:24)***


Riff H: (4 times)
A--------3h5--------3h5----3-2-0--3-2-0--3-2-0--3-2-0--3-2-1--
D--0-00------0--000-----00------------------------------------

Riff I: (once)

A-----------
D--1--1111--

Riff F: (3 times)


Riff K: (once)
A---------------------------------------------
D--0--0-0-3---0--0-0-3---0--0-0-3---0--0-0-4--


Riff H: (3 times)

Riff L: (once)
A--------3h5--------3h5----3-2-0--3-2-0--3-2-0--3-2-0--3-2-1--3--
D--0-00------0--000-----00---------------------------------------


***rest for guitar (2:49 - 2:54)***


Riff M: (8 times)
A-------------------------------------
D--2p1-0--2p1-0--2p1-0--2p1-0--2-1-0--


Riff N: (8 times)
A--3-2-0--3-2-0--3-2-0--3-2-0--3-2-1--
D-------------------------------------


Riff O: (once)
A--33333333-33333333-33333333-3333--3--
D--------------------------------------


Riff P: (once)
A----------------------
D--0-3----0--0-0-3--0--

Symbols:
2: let the note ring
~2: Vibrate the note
‰3: Vibrate the note up and down
2/~: Vibrate the note when pulling it up or down
/: Pull it up or down
3h4: Hammer on from note 3 too 4
5p4: Pull off from note 5 too 4
s: Slap Note
p: Pop note

    Lirycs SweetLirycs SweetLirycs Sweet
    The Sweet
      



    Написать администратору сайта
     

     

Российский фан сайт The Sweet 2008 © 2017