The Sweet


The Sweet



Партнеры
 
Siva
 
SIVA (SOLO)
Song: Siva
Artist: Smashing Pumpkins
Album: Rotten Apples
please send me feedback and corrections and shit at bof_mu@caramail.com
view this tab with courrier
thx

|-------------------------17b18r17-16h18b19-18b19-18b19--
|--17b19~rp19r17-15h17b19--------------------------------
|--------------------------------------------------------
|--------------------------------------------------------
|--------------------------------------------------------
|--------------------------------------------------------

|--------------------------------------------------
|--17b19-------------------------------------------
|-------------14-----14b16~--17b19--21-19----------
|----------17----17-----------------------21-19b21-
|--------------------------------------------------
|--------------------------------------------------
|very fast bit|
|----------------------------------------------------------------
|----------------------------------------17b19r17b19-------17b19-
|-------------------14b15--12h14b15---12----------------12-------
|-19-17------------------14---------14----------------14---------
|-------19-17-19-14----------------------------------------------
|----------------------------------------------------------------
| very fast bit |

that's all

    Lirycs SweetLirycs SweetLirycs Sweet
    The Sweet
      



    Написать администратору сайта
     

     

Российский фан сайт The Sweet 2008 © 2017