The Sweet


The Sweet



Партнеры
 
Siamese Dream
 
Brian McCall

Siamese Dream - by Smashing Pumpkins from the B-side of the
============= Disarm vinyl single.

G1 (distortion)

|--------------------------------------------
|--------------------------------------------
|--------------------------------------------
|-6--6-6-9----6--6-6--9----9-----------------
|-6--6-6-9----6--6-6--9----9-----------------
|-4--4-4-7--0-4--4-4--7----7-----------------

G2 distortion

|--------------------------------------------
|--------------------------------------------
|--------------------------------------------
|-6--6-6-9----6--6-6--9/119-----------------
|-6--6-6-9----6--6-6--9/119-----------------
|-4--4-4-7--0-4--4-4--7/-97-----------------

It's basically that over and over with a spooky
harmonica played over it with a few exceptions:

|--------------------------------------------
|--------------------------------------------
|--------------------------------------------
|-6-6-6-6-6-6-4444---------------------------
|-6-6-6-6-6-6-4444---------------------------
|-4-4-4-4-4-4-2222---------------------------

Lyrics:

Comin' down
From my siamese dream
I (all?) went out
When the silence to the dream (trees?)

Motherfucker try to crack your crown
Break you open (and) suck you out
Scoop you up like a little fish
Make me wish for more than this

Comin' down
From my siamese dream
All went out
When the .....

Chorus

And you call
And you call
And you call!!

Ooh, ow etc....
--------------------------------------

Well, that's as close as I can get...comments welcome. Thanks.

From: mercury@apo.com
Subject: TAB: Siamese Dream by Smashing Pumpkins
Date: Mon, 28 Aug 95 10:37:11 EST


Siamese Dream by Smashing Pumpkins:)
----------------------------------


Hullo!

For all of you lucky enough to have this groovy little tune, grab yr
guitar(or bass:)) and play along!!

Guitar:

Dropped-D Tuning (low to high DADGBE)

A C A C C# C
D--7--7/10--10--7--7--7/10--10/1110-------------------------------|
A--7--7/10--10--7--7--7/10--10/1110-------------------------------|
E--7--7/10--10--7--7--7/10--10/1110-------------------------------|
^ ^
Quick
Slide

    Lirycs SweetLirycs SweetLirycs Sweet
    The Sweet
      



    Написать администратору сайта
     

     

Российский фан сайт The Sweet 2008 © 2017