The Sweet


The Sweet



Партнеры
 
Shame
 

S M A S H I N G P U M P K I N S
S H A M E
Tuning: Words and music by
Db Ab Db Gb Bb Eb BILLY CORGAN

INTRO
|--------------------|1x
|-----------------0--|
|---0-----------2----|
|--------4----0------|
|-0---------2--------|
|-0------------------|

Main riff
|--------------------|9x
|------------------0-|
|-------0--------2---|
|-2h4-----4----0-----|
|-0---0------2-------|
|-0------------------|
this is the backround its played with E-bow
put a little dilay in it
|---------------------------------------------|7x
|---------------------------------------------|
|---------------------------------------------|
|-4/74---------------------------------------|
|---------------------------------------------|this is played
|---------------------------------------------|realy slow


|--------------------|5x
|-------2---------2--|
|-----0---------0----|
|---4---------2------|
|-0---------0--------|
|--------------------|
this is the backround 3x
|----------------------------------------|----------|
|----------------------------------------|----------|
|----------------------------------------|----------|
|-7/9-----9/11------11/12------12h14/16--|-16b17r16-|
|----------------------------------------|----------|this is played
|----------------------------------------|----------|realy slow
3x
|-----------------------|----------|--------|
|-----------------------|----------|--------|
|-----------------------|----------|--------|
|-161412----1211/16--|-16b17r16-|-1412-|
|-----------------------|----------|--------|
|-----------------------|----------|--------|


you can figure out the rest your not that dumb

Lyrics

you're ganna walk on home
you're ganna walk alone
you're ganna see this though
dont let them get to you
sh-sh-sh-sh-sh-shame
sh-sh-sh-sh-sh-shame
sh-sh-sh-sh-sh-shame
love is good and love is kind
love is drunk and love is blind
love is good and love is mine
love is drunk all the time
sh-sh-sh-sh-sh-shame
sh-sh-sh-sh-sh-shame
sh-sh-sh-sh-sh-shame
sh-sh-sh-sh-sh-shame
you're ganna walk on home
you're ganna walk alone
you're ganna walk so fare
you're ganna wonder who you are
sh-sh-sh-sh-sh-shame
sh-sh-sh-sh-sh-shame
sh-sh-sh-sh-sh-shame
sh-sh-sh-sh-sh-shame shame shame
love is good and love kind
love is good and love is blind
love is good and love is mine
love is good all the time
hello goodbye you know you made us cry
hello goodbye you know you made us cry
hello goodbye you know you made us cry
hello goodbye you know you made us cry
hello goodbye you know you made us cry
hello goodbye you know you made us cry
hello goodbye you know you made us cry

    Lirycs SweetLirycs SweetLirycs Sweet
    The Sweet
      



    Написать администратору сайта
     

     

Российский фан сайт The Sweet 2008 © 2017