The Sweet


The Sweet



Партнеры
 
ROSES
 
Roses - silverchair
tabbed by: ryan b

Play in Drop D

***rest for drums (0:00 - 0:06)***

Riff A: (4 times)
A--2222-----------------
D-------3333-6666-0000--

Riff B: (once)
A--5-55------2-22--------
D-------4-44------0-0-0--

Riff A: (4 times)
Riff B: (once)

Riff C: (once)
A--5-55--------------------------
D-------4-44-2222-2h3-0-0-0-0-0--

Riff B: (once)
Riff C: (once)

Riff D: (once)
A----------------------
D--2222-2h3-0-0-0-0-0--

Riff A: (4 times)
Riff B: (once)
Riff C: (once)
Riff B: (once)
Riff C: (once)
Riff D: (once)

Riff E: (once)
A-------------------1-1-1--
D--3-33--5-55--0-00--------

Riff F: (once)
A--------------------------
D--3-33--1-11--0-00--------

Riff E: (once)

Riff G: (once)
A--------------------------
D--3-33--1-11--0-----------

***break (2:25 - 2:33)***

Riff B: (once)
Riff C: (once)
Riff B: (once)
Riff C: (once)
Riff D: (once)
Riff E: (once)
Riff F: (once)
Riff E: (once)
Riff G: (once)

    Lirycs SweetLirycs SweetLirycs Sweet
    The Sweet
      



    Написать администратору сайта
     

     

Российский фан сайт The Sweet 2008 © 2017