The Sweet


The Sweet



Партнеры
 
Point Of View
 
E|-----4-------------------------------4--------------------------------------|

E|----4---4---4---4---4---4---4---4----| x 2

While guitar 2 does Led Zep type thing over it

A|--------4-4-4-4--------------------4-4-4--------------------|
E|-------------------6-6-6-6-6-6-6----------0-0-0-0-0-0-0--|

E|----4---4---4---4---4---4---4---4----| x 2

While guitar 2 does Led Zep type thing over it

A|--------4-4-4-4--------------------4-4-4--------------------|
E|-------------------6-6-6-6-6-6-6----------0-0-0-0-0-0-0--|

E|----4---4---4---4---4---4---4---4----| x 2

With guitars 1 & 2 doing artificial harmonics

(guitar 1 only) Accusation, does yes mean no?

E|-----4-------------------------------4--------------------------------------|

E|----4---4---4---4---4---4---4---4----| x 2

While guitar 2 does Led Zep type thing over it

A|--------4-4-4-4--------------------4-4-4--------------------|
E|-------------------6-6-6-6-6-6-6----------0-0-0-0-0-0-0--|

E|----4---4---4---4---4---4---4---4----| x 2

While guitar 2 does Led Zep type thing over it


A|--------4-4-4-4--------------------4-4-4--------------------|
E|-------------------6-6-6-6-6-6-6----------0-0-0-0-0-0-0--|

E|---4--------------7--------------------4-------7-------------------|

E|----4---4---4---4---4---4---4---4----| x 2

With guitars 1 & 2 doing artificial harmonics

E|---4--------------7--------------------4-------7-------------------|

E|----4---4---4---4---4---4---4---4----| x 2

With guitars 1 & 2 doing artificial harmonics

E|----4--------------7--------------------4------------7--------------|

(guitar 1 only) youuuuuuu.

Guitar 1 does small solo of verse here….

E|----4---4---4---4---4---4---4---4----| x 2

While guitar 2 does Led Zep type thing over it

A|--------4-4-4-4--------------------4-4-4--------------------|
E|-------------------6-6-6-6-6-6-6----------0-0-0-0-0-0-0--|

E|----4---4---4---4---4---4---4---4----| x 2

While guitar 2 does Led Zep type thing over it

A|--------4-4-4-4--------------------4-4-4--------------------|
E|-------------------6-6-6-6-6-6-6----------0-0-0-0-0-0-0--|

Guitar 1 does another small solo of verse after this then ends…..

    Lirycs SweetLirycs SweetLirycs Sweet
    The Sweet
      



    Написать администратору сайта
     

     

Российский фан сайт The Sweet 2008 © 2017