The Sweet


The Sweet



Партнеры
 
Pins In My Needles
 
Pins in my needles
Tabbed by Kristoffer Vural.
Website: www.silverchair.nu

Thanks to Bastiaan Nijbroek, Joakim Proos, Surfing Bird and Rhys Elliot.
The song is in Drop-D tuning.
Tune your low E-string down to D. From low to high; D-A-D-G-B-e


Tablature explanation
PM : Palm mute
: Harmonics
~ : Let ring
x : Muffle string


Dm F
Follow the tides
Dm Gm F
Drown in your headspin
Dm Gm F A (play the chords on the tab below)
Forget the world tonight

[0:15]
Guitar 1
|----------------|
|-2--2-3-3-5-5-6-|
|-x--x-x-x-x-x-x-|
|-2--2-3-3-5-5-7-|
|-0--0-0-0-0-0-0-|
|----------------|

Guitar 2
|----------------------------------------|
|-----2---2----3---3-----5---5-----6---6-|
|----------------------------------------|
|---2---2----3---3-----5---5-----7---7---|
|-0--------0---------0---------0---------|
|----------------------------------------|

Dm F
Leave all my joys
Dm Gm F
People are plastic
Dm Gm F A (play the pre-chorus)
A war with elastic knights

Pre-chorus
[0:35] Guitar 1
|----------------|----------------|
|-2--2-3-3-5-5-6-|-2--2-3-3-5-5-8-|
|-x--x-x-x-x-x-x-|-x--x-x-x-x-x-x-|
|-2--2-3-3-5-5-7-|-2--2-3-3-5-5-8-|
|-0--0-0-0-0-0-0-|-0--0-0-0-0-0-0-|
|----------------|----------------|

Guitar 2
|----------------------------------------|----------------------------------------|
|-----2---2----3---3-----5---5-----6---6-|-----2---2----3---3-----5---5-----8---8-|
|----------------------------------------|----------------------------------------|
|---2---2----3---3-----5---5-----7---7---|---2---2----3---3-----5---5-----8---8---|
|-0--------0---------0---------0---------|-0--------0---------0---------0---------|
|----------------------------------------|----------------------------------------|


Chorus [0:45]
Bm D Dsus
|-2-2-2-2-2-2-2--2-2-3-2--2-| x2 |-2-2-2-2-2-2-|
|-3-3-3-3-3-3-3--3-3-3-3--3-| |-3-3-3-3-3-3-|
|-4-4-4-4-4-4-2--2-2-2-2--2-| |-4-4-4-4-4-4-|
|-4-4-4-4-4-4-0--0-0-0-0--0-| |-4-4-4-4-4-4-|
|-2-2-2-2-2-2---------------| |-2-2-2-2-2-2-|
|---------------------------| |-------------|
Bm D
And i know how you feel in the night
Bm D
Do you know how i feel in the night
Bm
cuz i know why i feel all the
[0:57]
F5 A5 F5 A5 D5 D5
|-------------|-------------|---------| x2
|-6-6-6-10-10-|-6-6-6-10-10-|-------3-|
|-5-5-5-9--9--|-5-5-5-9--9--|-------2-|
|-3-3-3-7--7--|-3-3-3-7--7--|-0-0-0-0-|
|-3-3-3-7--7--|-3-3-3-7--7--|-0-0-0-0-|
|-3-3-3-7--7--|-3-3-3-7--7--|-0-0-0-0-|
F5 A5 F5 A5 D5 D5
pins in my needles, pins in my needles, you
F5 A5 F5 A5 D5 D5
pins in my needles, pins in my needles, you

Bridge [1:10]
D#5 F#5D5 D#5 E5 A5 D5 D5
|-----------------|------------------|----------------------| x1
|-----------------|------------------|----------------------|
|-----------------|---------------------|----------------------|
|-1-1-1-4-0-1-1-1-|-2-7-0-0-0--------------|-------0~~~~~~~----|
|-1-1-1-4-0-1-1-1-|-2-7-0-0-0--------------|----------0~~~~~~~----|
|-1-1-1-4-0-1-1-1-|-2-7-0-0-0--------------|----------0~~~~~~~----|
PM___ ___________ ~let ring

[1:22] Guitar 1
Dm F Dm Gm F
|-5-5-5-5-5-5-x--x--x--x--x--x--5-5-5-5-5-5-x--x--x--x--x--x--|
|-6-6-6-6-6-6-10-10-10-10-10-10-6-6-6-6-6-6-11-11-11-10-10-10-|
|-7-7-7-7-7-7-10-10-10-10-10-10-7-7-7-7-7-7-12-12-12-10-10-10-|
|-7-7-7-7-7-7-10-10-10-10-10-10-7-7-7-7-7-7-12-12-12-10-10-10-|
|-5-5-5-5-5-5-8--8--8--8--8--8--5-5-5-5-5-5-10-10-10-8--8--8--|
|-------------------------------------------------------------|
[1:22] Guitar 2
Dm F Dm Gm F
|-----1-----1------5------5------1------1------6------5-|
|---3-----3------6------6------3------3------8------6---|
|-2-----2------5------5------2------2------7------5-----|
|-------------------------------------------------------|
|-------------------------------------------------------|
|-------------------------------------------------------|
Guitar 1
Dm Gm F A
|-5-5-5-5-5-5-x--x--x--x--x--x-----------------|
|-6-6-6-6-6-6-11-11-11-10-10-10-2--2-3-3-5-5-6-|
|-7-7-7-7-7-7-12-12-12-10-10-10-x--x-x-x-x-x-x-|
|-7-7-7-7-7-7-12-12-12-10-10-10-2--2-3-3-5-5-7-|
|-5-5-5-5-5-5-10-10-10-8--8--8--0--0-0-0-0-0-0-|
|----------------------------------------------|
Guitar 2
Dm Gm F
|-----1------1------6------5-----------------------------------------|
|---3------3------8------6-------2---2-----3---3-----5---5-----6---6-|
|-2------2------7------5---------------------------------------------|
|------------------------------2---2-----3---3-----5---5-----7---7---|
|----------------------------0---------0---------0---------0---------|
|--------------------------------------------------------------------|
Face down holes
Guitar 1
Dm F Dm Gm F
|-5-5-5-5-5-5-x--x--x--x--x--x--5-5-5-5-5-5-x--x--x--x--x--x--|
|-6-6-6-6-6-6-10-10-10-10-10-10-6-6-6-6-6-6-11-11-11-10-10-10-|
|-7-7-7-7-7-7-10-10-10-10-10-10-7-7-7-7-7-7-12-12-12-10-10-10-|
|-7-7-7-7-7-7-10-10-10-10-10-10-7-7-7-7-7-7-12-12-12-10-10-10-|
|-5-5-5-5-5-5-8--8--8--8--8--8--5-5-5-5-5-5-10-10-10-8--8--8--|
|-------------------------------------------------------------|
Guitar 2
Dm F Dm Gm F
|-----1-----1------5------5------1------1------6------5-|
|---3-----3------6------6------3------3------8------6---|
|-2-----2------5------5------2------2------7------5-----|
|-------------------------------------------------------|
|-------------------------------------------------------|
|-------------------------------------------------------|
Pay them with love 'cause money is hollow

Guitar 1
Dm Gm F
|-5-5-5-5-5-5-x--x--x--x--x--x--|
|-6-6-6-6-6-6-11-11-11-10-10-10-|
|-7-7-7-7-7-7-12-12-12-10-10-10-|
|-7-7-7-7-7-7-12-12-12-10-10-10-|
|-5-5-5-5-5-5-10-10-10-8--8--8--|
|-------------------------------|

Guitar 2
Dm Gm F
|-----1------1------6------5-|
|---3------3------8------6---|
|-2------2------7------5-----|
|----------------------------|
|----------------------------|
|----------------------------|
This time is not for
Guitar 1
|------------------|----------------|-------------|
|-2-2-3-3-5-5-6--2-|-2-3-3-5-5-6--2-|-2-3-3-5-5-8-|
|-x-x-x-x-x-x-x--x-|-x-x-x-x-x-x--x-|-x-x-x-x-x-x-|
|-2-2-3-3-5-5-7--2-|-2-3-3-5-5-7--2-|-2-3-3-5-5-8-|
|-0-0-0-0-0-0-0--0-|-0-0-0-0-0-0--0-|-0-0-0-0-0-0-|
|------------------|----------------|-------------|

Guitar 2
|-----------------------------------------|x2 |-----------------------------------------|
|-----2---2-----3---3-----5---5-----6---6-| |-----2---2-----3---3-----5---5-----8---8-|
|-----------------------------------------| |-----------------------------------------|
|---2---2-----3---3-----5---5-----7---7---| |---2---2-----3---3-----5---5-----8---8---|
|-0---------0---------0---------0---------| |-0---------0---------0---------0---------|
|-----------------------------------------| |-----------------------------------------|
Self emotions, comfort motions are hard to notice
Chorus [2:12]
Bm D Dsus
|-2-2-2-2-2-2-2--2-2-3-2--2-| x2 |-2-2-2-2-2-2-|
|-3-3-3-3-3-3-3--3-3-3-3--3-| |-3-3-3-3-3-3-|
|-4-4-4-4-4-4-2--2-2-2-2--2-| |-4-4-4-4-4-4-|
|-4-4-4-4-4-4-0--0-0-0-0--0-| |-4-4-4-4-4-4-|
|-2-2-2-2-2-2---------------| |-2-2-2-2-2-2-|
|---------------------------| |-------------|
Bm D
And i know how you feel in the night
Bm D
Do you know how i feel in the night
Bm
cuz i know why i feel all the
[2:24]
F5 A5 F5 A5 D5 D5
|-------------|-------------|---------| x3
|-6-6-6-10-10-|-6-6-6-10-10-|-------3-|
|-5-5-5-9--9--|-5-5-5-9--9--|-------2-|
|-3-3-3-7--7--|-3-3-3-7--7--|-0-0-0-0-|
|-3-3-3-7--7--|-3-3-3-7--7--|-0-0-0-0-|
|-3-3-3-7--7--|-3-3-3-7--7--|-0-0-0-0-|
F5 A5 F5 A5 D5 D5
pins in my needles, pins in my needles, you
F5 A5 F5 A5 D5 D5
pins in my needles, pins in my needles, you
[2:44]
D#5 F#5D5 D#5 E5 A5 D5
|-----------------|---------------| x3 |------|
|-----------------|---------------| |------|
|-----------------|---------------| |------|
|-1-1-1-4-0-1-1-1-|-2-7-0-0-0-----| |---------------|
|-1-1-1-4-0-1-1-1-|-2-7-0-0-0-----| |---------------|
|-1-1-1-4-0-1-1-1-|-2-7-0-0-0-----| |---------------|

    Lirycs SweetLirycs SweetLirycs Sweet
    The Sweet
      



    Написать администратору сайта
     

     

Российский фан сайт The Sweet 2008 © 2017