The Sweet


The Sweet



Партнеры
 
Paint Pastel Princess
 
this is 100% correct because its straight out of the book... questions comments
email me at silverchairfr3ak987@yahoo.com this is 100% correct so it SHOULD be
the best rated silverchair song as of now

*TUNING* 1=C# tempo=82
2=G#
3=G#
4=C#
5=G#
6=C#

C------4----5----7---0h7---7---54------4----5-----7------5---5-----0-
G----5----7----9---9-----9---9--------5----7-----9----------5---------
G------------------------------------------------------4---------4----
C--0----0----0----------------------0-----0----0-----0----------------
G---------------------------------------------------------------------
C---------------------------------------------------------------------


C------4----5----7---0h7---7---54------4----5-----7------5---5-----5-
G----5----7----9---9-----9---9--------5----7-----9----------5---------
G------------------------------------------------------4---------4----
C--0----0----0----------------------0-----0----0-----0----------------
G---------------------------------------------------------------------
C---------------------------------------------------------------------

C--------5--------5-----5---5-----5---------5--------5--5------5-------5--0-7-
G--5-----------5-------------------------5---------------------------5------0-
G-----4-----4--------4---------4------4----------4---------4-------4-----4--0-
C--0------------------------0---------------------------0-------------------0-
G-----------------------------------------------------------------------------

    Lirycs SweetLirycs SweetLirycs Sweet
    The Sweet
      



    Написать администратору сайта
     

     

Российский фан сайт The Sweet 2008 © 2017