The Sweet


The Sweet



Партнеры
 
Nowhere Fast
 
Nowhere Fast By Incubus
Tabbed by: KoRny Freak
Dropped D Tuning (DADGBE)

Intro ~~~~~
|----------------------------------|
|----------------------------------|
|--0-0-----------------------------|
|------4-4-0-0---------------------|
|------------------3---3---8---8---|
|--------------0-0-3---3---8---8---|

Chorus ~~~~~~
|------------------------|------------------------------|----------------------------
|------------------------|------------------------------|----------------------------
|------------------------|------------------------------|----------------------------
|0-0-0-0-0-3-3-3-3-8-8-8-|-x-x-x-0--0-0-0-3-3-3-3-8-8-8-|-0-0-0-0-0-10-10-10-10-8-8-8
|0-0-0-0-0-3-3-3-3-8-8-8-|-x-x-x-0--0-0-0-3-3-3-3-8-8-8-|-0-0-0-0-0-10-10-10-10-8-8-8
|0-0-0-0-0-3-3-3-3-8-8-8-|-x-x-x-0--0-0-0-3-3-3-3-8-8-8-|-0-0-0-0-0-10-10-10-10-8-8-8

Verse ~~~~~
|--2--------14--------5--------7-|
|--2------------------5--------7-|
|--2------------------5--------6-|
|--------------------------------|
|--------------------------------|
|--------------------------------|

Bridge ~~~~~~
|-----------------------9-------10----------------------------------------|
|-------------------------10-------10-------------5---------------7-------|
|--------------11------------11-------11------------7---7-----------9-----|
|------4---4------12--------------------------7-------7-------9-------9---|
|----5---5-----------12---------------------5---5-----------7---7-------7-|
|--0--------------------------------------0---------------7---------------|

|------------------------------------------|
|------------------------------------------|
|--11-11--14-14--11-11--11-9-7-6/7-7-6/7-7-|
|--11-11--14-14--11-11--11-9-7-6/7-7-6/7-7-|
|---9--9--12-12---9--9---9-7-5-4/5-5-4/5-5-|
|------------------------------------------|

Outro ~~~~~
|----------------------------------|
|----------------------------------|
|----------------------------------|
|--0--0--0--0--0-10-10-10-10-8-8-8-|
|--0--0--0--0--0-10-10-10-10-8-8-8-|
|--0--0--0--0--0-10-10-10-10-8-8-8-|

    Lirycs SweetLirycs SweetLirycs Sweet
    The Sweet
      



    Написать администратору сайта
     

     

Российский фан сайт The Sweet 2008 © 2017