The Sweet


The Sweet



Партнеры
 
No Association
 
No Association by Silverchair
off of the Album Freakshow


Start after the... Wah, Wah, Wah, Wah
Bass solo
G--------------------------------------------
D--------------------------------------------
A--------------------------------------------
E-0-2-2-0-4-3-0-6-5-0-8-7-0-11r--------------
Play until he starts singing
When he starts, play:
Verse
G--------------------------------------------
D--------------------------------------------
A--------------------------------------------
E-0-2-2r-0-2-2-0-2-0-3r-0-2-2r---------------
Play this until he says ...blood right out of ->Me!
Then play this: With the Lead guitar
Chorus
G--------------------------------------------
D--------------------------------------------
A--------------------------------------------
E-0-2-2-0-4-3-0-6-5-0-8-7-0-11r--------------
And then later on in the song, play this
G--------------------------------------------
D--------------------------------------------
A--------------------------------------------
E-0-2-2-/3/1-1-1-4-4-------------------------

Ths song is realy easy to play but when put
with the guitar, sounds real good

Hope you enjoy

    Lirycs SweetLirycs SweetLirycs Sweet
    The Sweet
      



    Написать администратору сайта
     

     

Российский фан сайт The Sweet 2008 © 2017