The Sweet


The Sweet



Партнеры
 
Never Let Me Down
 
Title: Never Let Me Down
Artist: The Smashing Pumpkins
Album: UK 7 Inch Single Peach Vinyl (Limited Edition)
Tuning: Drop D

Come in with the drums

Riff 1
G|------------|
d|------------|
A|5--3--8--6--|
D|------------|

Play Riff 1 twice

Then to Riff 2

Riff 2
G|---------------|
d|---------------|
A|5----3---------|
D|----------5----|

Sometimes step up to an A# (1st fret on A) after the G (5th fret on D).

Here is the Chorus part:

Riff 3
G|------------|
d|------------|
A|3--1--------|
D|------5--3--|


Riff 1 twice, Riff 2 quiet a few times, Riff 3

Then play this to the end of the song:

Riff 4
G|------------|
d|------------|
A|5--3--------|
D|------7--5--|


    Lirycs SweetLirycs SweetLirycs Sweet
    The Sweet
      



    Написать администратору сайта
     

     

Российский фан сайт The Sweet 2008 © 2017