The Sweet


The Sweet



Партнеры
 
Miss You Love3
 
Мiss You Love
Silverchair

tabbed by dave lander

Tablature explanation
b : bends : slide
h : hammer-on
p : pull-off
x : muffled string
P.M.: palm mute

[0:00]clean tone
C G D
e||----------------0----0-----------------------------|| x2
B||------1----1---0-0--0-0---3-----3-----3------3-----||
G||-o---0-0--0-0-----0----0-2-2---2-2---2-2----2-2--o-||
D||-o------2----2----------0---0-0---0-0---0-0------o-||
A||----3----3-----------------------------------------||
E||--------------3----3-------------------------------||Millionaire say
Got a big shot deal
And thrown it all away but
But I'm not too sure
How I'm supposed to feel
Or what I'm supposed to say but...
C G x2 Am Em
||------------0------||-------------------------------------------------|
||------1----0-0-----||---1-----1-----1-----1-----0-----0-----0-----0---|
||-o---0-0------0--o-||--2-2---2-2---2-2---2-2---0-0---0-0---0-0---0-0--|
||-o------2--------o-||-----2-----2-----2-----2-----2-----2-----2-----2-|
||----3--------------||-0-----0-----0-----0-----------------------------|
||----------3--------||-------------------------0-----0-----0-----0-----|
I'm not, not sure,
Not too sure how it feels
To handle every day C G D
|---------0---2--||----1---0-0--3--||---0-0-----0-2--||------2------0--|
|--3-------------||-------3--------|And I miss you love[0:42]
C G D
||----------------0----0-----------------------------|| x2
||------1----1---0-0--0-0---3-----3-----3------3-----||
||-o---0-0--0-0-----0----0-2-2---2-2---2-2----2-2--o-||
||-o------2----2----------0---0-0---0-0---0-0------o-||
||----3----3-----------------------------------------||
||--------------3----3-------------------------------||
Make room for the prey
'Cause I'm coming inWith what I wanna say but
It's gonna hurt
And I love the pain
A breeding ground for hate but...
C G x2 Am Em
||------------0------||-------------------------------------------------|
||------1----0-0-----||---1-----1-----1-----1-----0-----0-----0-----0---|
||-o---0-0------0--o-||--2-2---2-2---2-2---2-2---0-0---0-0---0-0---0-0--|
||-o------2--------o-||-----2-----2-----2-----2-----2-----2-----2-----2-|
||----3--------------||-0-----0-----0-----0-----------------------------|
||----------3--------||-------------------------0-----0-----0-----0-----|
I'm not, not sure,
Not too sure how it feels
To handle every day
Am D Dm G
|----------------------------2-----2-----1---0---|
|---1-----1-----1-----1-----3-3---3-3---3---0-0--|
|--2-2---2-2---2-2---2-2---2-----2-----2-------0-|
|-----2-----2-----2-----2-0-----0-----0----------|
|-0-----0-----0-----0----------------------------|
|------------------------------------------3-----|
Like the one that just past
In the crowds of all the people[1:27] F# E F# E D A E D A E
x2
||----2--0--2--0-|-2--0--0-|-2--0--0----||
||----2--0--2--0-|-3--2--0-|-3--2--0----||
||-o--3--1--3--1-|-2--2--1-|-2--2--1--o-||
||-o--4--2--4--2-|-0--2--2-|-0--2--2--o-||
||----4--2--4--2-|----0--2-|----0--2----||
||----2--0--2--0-|-------0-|-------0----||
Remember today
I've no respect for you
And I miss you love
And I miss you love [1:49] distortion on
C Cadd9 G Gadd9
||------------------------------------------------|
||----5--5-5-5-5-6--6-6-6-6-----------------------|
||-o--5--5-5-5-5-5--5-5-5-5-5--5-5-5-5-6--6-6-6-6-|
||-o--5--5-5-5-5-5--5-5-5-5-5--5-5-5-5-5--5-5-5-5-|
||----3--3-3-3-3-3--5-5-5-5-5--5-5-5-5-5--5-5-5-5-|
||--------------------------3--3-3-3-3-3--3-3-3-3-|
D Dadd9 D Dadd9 x2
|------------------------------------------------||
|-7--7-7-7-7-8--8-8-8-8-7--7-7-7-7-8--8-8-8-8----||
|-7--7-7-7-7-7--7-7-7-7-7--7-7-7-7-7--7-7-7-7--o-||
|-7--7-7-7-7-7--7-7-7-7-7--7-7-7-7-7--7-7-7-7--o-||
|-5--5-5-5-5-5--5-5-5-5-5--5-5-5-5-5--5-5-5-5----||
|------------------------------------------------||[2:09] distortion off
C G D
|-------------0----0--------------------------|
|---1----1---0-0--0-0---3-----3-----3------3--|
|--0-0--0-0-----0----0-2-2---2-2---2-2----2-2-|
|-----2----2----------0---0-0---0-0---0-0-----|
|-3----3--------------------------------------|
|-----------3----3----------------------------|
I love the way you love
But I hate the way
I'm supposed to love you back distortion on
C5 G5 D5
|------------------------------------|------------------------------------|
|------------------------------------|------------------------------------|
|-5-5-5-5--5-5-5-5-------------------|-5-5-5-5--5-5-5-5--5-5-5-5--5-5-5-5-|
|-5-5-5-5--5-5-5-5--5-5-5-5--5-5-5-5-|-5-5-5-5--5-5-5-5--5-5-5-5--5-5-5-5-|
|-3-3-3-3--3-3-3-3--5-5-5-5--5-5-5-5-|-7-7-7-7--7-7-7-7--7-7-7-7--7-7-7-7-|
|-------------------3-3-3-3--3-3-3-3-|------------------------------------|
It's just a fad
Part of the teenage angst brigade and[2:30] distortion off
C G Am Em
|----------0----|-------------------------------------------------|
|----1----0-0---|---1-----1-----1-----1-----0-----0-----0-----0---|
|---0-0------0--|--2-2---2-2---2-2---2-2---0-0---0-0---0-0---0-0--|
|------2--------|-----2-----2-----2-----2-----2-----2-----2-----2-|
|--3------------|-0-----0-----0-----0-----------------------------|
|--------3------|-------------------------0-----0-----0-----0-----|
I'm not, not sure,
Not too sure how it feels
To handle everyday
Am D Dm G
|----------------------------2-----2-----1---0---|
|---1-----1-----1-----1-----3-3---3-3---3---0-0--|
|--2-2---2-2---2-2---2-2---2-----2-----2-------0-|
|-----2-----2-----2-----2-0-----0-----0----------|
|-0-----0-----0-----0----------------------------|
|------------------------------------------3-----|
Like the one that just past
In the crowds of all the people[2:54] F# E F# E D A E D A E
x2
||----2--0--2--0-|-2--0--0-|-2--0--0----||
||----2--0--2--0-|-3--2--0-|-3--2--0----||
||-o--3--1--3--1-|-2--2--1-|-2--2--1--o-||
||-o--4--2--4--2-|-0--2--2-|-0--2--2--o-||
||----4--2--4--2-|----0--2-|----0--2----||
||----2--0--2--0-|-------0-|-------0----|
Remember today
I've no respect for you
And I miss you love
And I miss use love
Remember two days
I've no respect for you
And I miss you love
And I miss use love[3:37]
C G D C G D
|-------------0----0--------------------------|---------0---2--|
|---1----1---0-0--0-0---3-----3-----3------3--|----1---0-0--3--|
|--0-0--0-0-----0----0-2-2---2-2---2-2----2-2-|---0-0-----0-2--|
|-----2----2----------0---0-0---0-0---0-0-----|----2--------0--|
|-3----3--------------------------------------|--3-------------|
|-----------3----3----------------------------|-------3--------|
I love the way you love
But I hate the way
I'm supposed to love you back

    Lirycs SweetLirycs SweetLirycs Sweet
    The Sweet
      



    Написать администратору сайта
     

     

Российский фан сайт The Sweet 2008 © 2017