The Sweet


The Sweet



Партнеры
 
По договору ремонт квартир Юго-Западная сделает наша фирма.
Minor Threat
 
Artist: Silverchair
Song: Minor Threat
Album: The Door EP & Best Of.Vol.1
Tabbed By: Simon Robson


Standard Tuning

Verse

D5/A A5 E5/B C5/G G5
|------------------------------------|
|------------------------------------|
|------------------------------------| Repeat x4
|----7-7-7-7-7-7-7-7-9-9-9-9-5-5-5-5-|
|----5-5-5-5-7-7-7-7-7-7-7-7-3-3-5-5-|
|----5-5-5-5-5-5-5-5-7-7-7-7-3-3-3-3-|

Then to this......

D5 A5 E5 C5 G5
|------------------------------------|
|------------------------------------|
|----7-7-7-7---------9-9-9-9-5-5-----| Repeat x4
|----7-7-7-7-7-7-7-7-9-9-9-9-5-5-5-5-|
|----5-5-5-5-7-7-7-7-7-7-7-7-3-3-5-5-|
|------------5-5-5-5-------------3-3-|

Pre-Chorus

B5 G5 B5 D5
|----------------------------------|
|----------------------------------|
|----4-4-4-4---------4-4-4-4-7--7--|
|----4-4-4-4-5-5-5-5-4-4-4-4-7--7--|
|----2-2-2-2-5-5-5-5-2-2-2-2-5--5--|
|------------3-3-3-3---------------|

Chorus (Played x2 faster)

D5/A A5 E5/B B5
|----------------------------------|
|----------------------------------|
|----------------------------------|
|----7---7---7---7---9---9---9---9-|
|----5---5---7---7---7---7---9---9-|
|----5---5---5---5---7---7---7---7-|

Or you can use this, it does'nt really matter to much

D5 A5 E5 B5
|----------------------------------|
|----------------------------------|
|----7---7-----------9---9---------|
|----7---7---7---7---9---9---9---9-|
|----5---5---7---7---7---7---9---9-|
|------------5---5-----------7---7-|

Add Pick Scrapes at the end.


Structure / Order:
[0:22]: Intro (verse)
[0:33]: First Verse
[0:45]: Pre-Chorus
[0:51]: Chorus
[1:05]: Pre-Verse (verse)
[1:16]: Second Verse
[1:28]: Pre-Chorus
[1:33]: Chorus

    Lirycs SweetLirycs SweetLirycs Sweet
    The Sweet
      



    Написать администратору сайта
     

     

Российский фан сайт The Sweet 2008 © 2017