The Sweet


The Sweet



Партнеры
 
Mcis
 
#----------------------------------PLEASE NOTE---------------------------------#
#This file is the author's own work and represents their interpretation of the #
#song. You may only use this file for private study, scholarship, or research. #
#------------------------------------------------------------------------------##
MELLON COLLIE and the INFINITE SADNESS - the song :)

TRANSCRIBED BY ADAM MORRIS

DO NOT overlook this TAB just because it a piano song,
it is GREAT fun to play!!

THIS IS THE COMPLETE TAB!!

I have completed the TAB after MANY requests to do so,
so...enjoy!

This was NOT an easy task, I can assure you of that!!
Some piano chords do not convert well to guitar!

TUNING: 1/2 step down, dropped D (actually Db), with
capo on 2nd fret. The 3rd fret now becomes
the 1st fret etc. (this is just to be consistent
with the half step down thing)


Piano arranged for guitar


E |----------0-0--3-1-0-1-0--------|
B |-1--------1-1--------3---3-1----|
G |-0------0-0-0--------2-----x--2-|
D |-2----2---2-2--------0-----3----|
A |-3--3-----3-3--------------3----|
D |--------------------------------|

|----------0-0--3-1-0-1-0--------|
|-1--------1-1--------3---3-1----|
|-0------0-0-0--------2-----x--2-|
|-2----2---2-2--------0-----3----|
|-3--3-----3-3--------------3----|
|--------------------------------|

|-1--0------------------------0--|
|-x-----3--1-----1--------1-3----|
|-3--------x--2--0------0--------|
|-3--------3-----2----2----------|
|-1--------3-----3--3------------|
|--------------------------------|

|--------------------------------|
|-6--5--3--1--1------------3-1---|
|-0-----0--x--2--0-------0-----3-|
|-0--------3-----1-----1---------|
|-x--------3-----1---1-----------|
|-5--------------1-1-------------|

|--------------------------------|
|-1----1--3--6-------------3-1---|
|-2----2--3--3--3------3-5-----3-|
|-x-------0-----5----5-----------|
|-3--3----------5--5-------------|
|--------------------------------|

|--------------------------------|
|-1----1--3--6-------------3-1---|
|-2----2--3--3--3------3-5-----3-|
|-x-------0-----5----5-----------|
|-3--3----------5--5-------------|
|--------------------------------|

|--------------------------------|
|-1----1--3--6-------------3-1---|
|-2----2--3--3--3------3-5-----3-|
|-x-------0-----5----5-----------|
|-3--3----------5--5-------------|
|--------------------------------|

|--------------------------------|
|-1---------1--------------------|
|-2------2----3-2-0------0--3-2--|
|-3----3----------1----1--------3|
|-3--3------------1--1-----------|
|--------------------------------|

CELLO ENTERS

E |----------0-0--3-1-0-1-0--------|
B |-1--------1-1--------3---3-1----|
G |-0------0-0-0--------2-----x--2-|
D |-2----2---2-2--------0-----3----|
A |-3--3-----3-3--------------3----|
D |--------------------------------|

|----------0-0--3-1-0-1-0--------|
|-1--------1-1--------3---3-1----|
|-0------0-0-0--------2-----x--2-|
|-2----2---2-2--------0-----3----|
|-3--3-----3-3--------------3----|
|--------------------------------|

|-1--0------------------------0--|
|-x-----3--1-----1--------1-3----|
|-3--------x--2--0------0--------|
|-3--------3-----2----2----------|
|-1--------3-----3--3------------|
|--------------------------------|

|----------------------------0---|
|--------1---3-1---------1-3-----|
|-3----x-2-----0-------0---------|
|-3-2--x-3-----2-----2-----------|
|-1------3-----3---3-------------|
|--------------------------------|

|----------------------------0---|
|--------1---3-1---------1-3-1---|
|-3----x-2-----0-------0---0-----|
|-3-2--x-3-----2-----2-----------|
|-1------3-----3---3-------------|
|--------------------------------|

|----------------------------0---|
|--------1---3-1---------1-3-1---|
|-3----x-2-----0-------0---0-----|
|-3-2--x-3-----2-----2-----------|
|-1------3-----3---3-------------|
|--------------------------------|

|-1-0----------------------------|
|-3-3---1------------------3-1---|
|-x-----2---2--0---------0-----3-|
|-0-----3---3--1-------1---------|
|-------3------1-----1-----------|
|--------------1---1-------------|

|--------------------------------|
|-1----1--3--6-------------3-1---|
|-2----2--3--3--3------3-5-----3-|
|-x-------0-----5----5-----------|
|-3--3----------5--5-------------|
|--------------------------------|

|--------------------------------|
|-1----1--3--6-------------3-1---|
|-2----2--3--3--3------3-5-----3-|
|-x-------0-----5----5-----------|
|-3--3----------5--5-------------|
|--------------------------------|

|--------------------------------|
|-1----1--3--6-------------3-1---|
|-2----2--3--3--3------3-5-----3-|
|-x-------0-----5----5-----------|
|-3--3----------5--5-------------|
|--------------------------------|

|--------------------------------|
|-1--------1---------------------|
|-2------2---3-2-0-------0-3-2---|
|-x----3---------1-----1-------3-|
|-3--3-----------1---1-----------|
|------------------1-------------|

|----------0-0--3-1-0-1-0--------|
|-1--------1-1--------3---3-1----|
|-0------0-0-0--------2-----x--2-|
|-2----2---2-2--------0-----3----|
|-3--3-----3-3--------------3----|
|--------------------------------|

|----------0-0--3-1-0-1-0--------|
|-1--------1-1--------3---3-1----|
|-0------0-0-0--------2-----x--2-|
|-2----2---2-2--------0-----3----|
|-3--3-----3-3--------------3----|
|--------------------------------|

|-1--0------------------------0--|
|-x-----3--1-----1--------1-3----|
|-3--------x--2--0------0--------|
|-3--------3-----2----2----------|
|-1--------3-----3--3------------|
|--------------------------------|

|--------------------------------|
|-6--5--3--1--1------------3-1---|
|-0-----0--x--2--0-------0-----3-|
|-0--------3-----1-----1---------|
|-x--------3-----1---1-----------|
|-5--------------1-1-------------|


|--------------------------------|
|------------1-------------------|
|-2--------2---3-2--0--------0---|
|-0------0----------1------1-----|
|-0----0------------1----1-------|
|-0--0--------------1--1---------|

|--------------------------------|
|-3-1-----------------1----------|
|-----3-2----------2------3---2--|
|-------0--------0---------------|
|-------0------0-----------------|
|-------0----0-------------------|

|---------------19-20------**-----|
|-------11-12---------------------|
|-4-------------------------------|
|-4-------------------------------|
|-2-------------------------------|
|---------------------------------|
*~~~~~~~~~~~~~~~~~~~~~~~~~~~~~~~~*
This whole measure is IMPOSSIBLE
to be arranged for guitar because
of the difference in number of
octaves to a piano. The C is meant
to be a low C, but I HAD to arrange
it as a high, I am very sorry!
** Impossible note on a guitar.

**** Remember that the numbers shown
are fret numbers IN RELATION TO
THE CAPO!
The dot on the 3rd fret becomes the
1st fret in the tab fret.

    Lirycs SweetLirycs SweetLirycs Sweet
    The Sweet
      



    Написать администратору сайта
     

     

Российский фан сайт The Sweet 2008 © 2017