The Sweet


The Sweet



Партнеры
 
Luv Your Life
 
Standard tuning.

C
You don't know the truth
Cmaj F
and I love your life
C
And you don't know the truth
Cmaj F
and I love your life

C
Thrust the candle
Fm C
to the dark of your disease
C
Burn the fishplate
Fm C
Execute ill memories
C
Labyrynth of sympathy
Fm F
In which I'm lost and can't leave

C
And too much truth
Fm C
Over shadows the time lies
C
Coz what lies beneath the clouds
Fm C
is an altered perception
C
And i'll pay for sanity
Fm F
But sanity don't come cheap

C
You don't know the truth
Cmaj F
and I love your life
C
And you don't know the truth
Cmaj F
and I love your life

G Am F C
|-3--3-3-3/5-5-1-1-1-1-0-0-0-|4x
|-3--3-3-3/5-5-1-1-1-1-1-1-1-|
|-4--4-4-4/5-5-2-2-2-2-0-0-0-|
|-5--5-5-5/7-7-3-3-3-3-2-2-2-|
|-5--5-5-5/7-7-3-3-3-3-3-3-3-|
|-3--3-3-3/5-5-1-1-1-1-------|

Du Du du.....


(piano based chorus)
C
You don't know the truth
Cmaj F
and I love your life
C
You don't know the truth
Cmaj F
and I love your life

D# F
Flinch against the fire but this ain't winter
D#
And I'm all by myself the way I wanna be
F Bb
Where I'm content to be to be all by myself
C
But frozen eyes are bound to melt

G Am F C
|-3--3-3-3/5-5-1-1-1-1-0-0-0-|4x
|-3--3-3-3/5-5-1-1-1-1-1-1-1-|
|-4--4-4-4/5-5-2-2-2-2-0-0-0-|
|-5--5-5-5/7-7-3-3-3-3-2-2-2-|
|-5--5-5-5/7-7-3-3-3-3-3-3-3-|
|-3--3-3-3/5-5-1-1-1-1-------|

Du Du du.....


C
You don't know the truth
Cmaj F
and I love your life
C
And you don't know the truth
Cmaj F
and I love your life

C Cmaj F C# F# G
|-0-0-0-0-0-0-0-0-0-0-1-1-4-4-4-4-4-4-2-2-2--1-2-3-|
|-1-1-1-1-1-1-0-0-0-0-1-1-6-6-6-6-6-6-2-2-2--1-2-3-|
|-0-0-0-0-0-0-0-0-0-0-2-2-6-6-6-6-6-6-3-3-3--2-3-4-|
|-2-2-2-2-2-2-2-2-2-2-3-3-6-6-6-6-6-6-4-4-4--3-4-5-|
|-3-3-3-3-3-3-3-3-3-3-3-3-4-4-4-4-4-4-4-4-4--3-4-5-|
|---------------------1-1-------------2-2-2--1-2-3-|

C Cmaj F C# F#| F| F#| G|
And you don't know the truth and I love your life

(see the tab above for this part)

C F
|-0-0-0-0-1-1-1---------|x2
|-1-1-1-1-1-1-1---------|
|-0-0-0-0-2-2-2---------|
|-2-2-2-2-3-3-3-5/7-5-3-|
|-3-3-3-3-3-3-3-x/x-x-x-|
|---------1-1-1-3/5-3-1-|

C F
You dont know the truth

C F C# F#
You don't know the truth and I love your life

F| F#| G|

C F
|-0-0-0-0-1-1-1---------|x2
|-1-1-1-1-1-1-1---------|
|-0-0-0-0-2-2-2---------|
|-2-2-2-2-3-3-3-5/7-5-3-|
|-3-3-3-3-3-3-3-x/x-x-x-|
|---------1-1-1-3/5-3-1-|

C F
You dont know the truth

C F B Bb F
|-0-0-0-0-1-1-1-1-1-1-1-1-2-2-2--1-1-1-1-1-|
|-1-1-1-1-1-1-1-1-1-1-1-1-4-4-4--3-1-1-1-1-|
|-0-0-0-0-2-2-2-2-2-2-2-2-4-4-4--3-2-2-2-2-|
|-2-2-2-2-3-3-3-3-3-3-3-3-4-4-4--3-3-3-3-3-|
|-3-3-3-3-3-3-3-3-3-3-3-3-2-2-2--1-3-3-3-3-|
|---------1-1-1-1-1-1-1-1----------1-1-1-1-|

C F B Bb F
And you dont know the truth

Outro
|-------------|
|-------------|
|-3-4-5-2-3-4-|
|-4-5-6-3-4-5-|
|-4-5-6-3-4-5-|
|-2-3-4-1-2-3-|

    Lirycs SweetLirycs SweetLirycs Sweet
    The Sweet
      



    Написать администратору сайта
     

     

Российский фан сайт The Sweet 2008 © 2017