The Sweet


The Sweet



Партнеры
 
Lucky 13
 
Artist - Smashing Pumpkins
Song - Lucky 13
Album - Judas O/Machina 2
Tabbed by an17nin17

Tuning - C, F, Bb, Eb, G, C (same tuning as everlasting gaze, heavy metal
machine and the imploding voice)

Intro and main riff -

|-------------------|------|
|-------------------|------|
|-------------------|------|
|-------------------|------| - this bit comes in every so often
|-------------------|------|
|-1h3-3-3-3-2-1-1h3-|-6~/1-|
^repeat this several times

Chorus -

|-------------------------------------------------|
|-------------------------------------------------|
|-5-5-5-5-5-5-5-5-5-5-5-5/8-8-8-8-8-8-8-8-8-8-8-8-|
|-5-5-5-5-5-5-5-5-5-5-5-5/8-8-8-8-8-8-8-8-8-8-8-8-|
|-3-3-3-3-3-3-3-3-3-3-3-3/6-6-6-6-6-6-6-6-6-6-6-6-|
|-------------------------------------------------|
^repeat this twice

Post chorus -

|---------------|
|---------------|
|---------------|
|---------------|
|---6-6^/2-5----|
|-0----------5^-|

Repeat the verse and chorus AND post chorus again. The part after the post
chorus is this -

|---------------|
|---------------|
|---------------|
|---------------|
|-5^------------|
|--------5^-----|


    Lirycs SweetLirycs SweetLirycs Sweet
    The Sweet
      



    Написать администратору сайта
     

     

Российский фан сайт The Sweet 2008 © 2017