The Sweet


The Sweet



Партнеры
 
Learn To Hatе1
 
#----------------------------------PLEASE NOTE---------------------------------#
#This file is the author's own work and represents their interpretation of the #
#song. You may only use this file for private study, scholarship, or research. #
#------------------------------------------------------------------------------#

Date: Mon, 24 Nov 1997 13:23:53 -0200
From: Raphael Cunha
Subject: TAB: 'Learn to Hate' by Silverchair


Author/Artist: Silverchair
Title: Learn to Hate
Album: Freak Show
Transcribed by: Raphael Cunha
Email: arcunha@tba.com.br


##Dropped D Tuning##


INTRO and Verses:

-------------------------|
-------------------------|
-3-3-3-5-5-5-------------|
-3-3-3-5-5-5-0-0-0-6-6-6-|
-1-1-1-3-3-3-0-0-0-6-6-6-|
-------------0-0-0-6-6-6-|
Bb5 C5 D G#


Chorus:

-----------------------------------|
-----------------------------------|
--------------------------4-4-4-4--|
--4-4-4-4-6-6-6-6-0-0-0-0-4-4-4-4--|
--4-4-4-4-6-6-6-6-0-0-0-0-2-2-2-2--|
--4-4-4-4-6-6-6-6-0-0-0-0----------|
F# G# D B5


Lyrics:

i wanted to be friends with her too
so my relationship could be the same as yours
i hated everyone just like you
hating you should be introduced as a new law

take the time to learn to hate
come and join the mass debate
take the time, take the time
it's all uphill you've gotta climb

you betrayed all the trust i gave you
now i need therapy to hate a little more
you cannot help me to forgive you
the drugs have given you all kinds of different sores

as you pump drugs into your bloodstream
i sit observing in disgust
hoping that you will finally come clean
so i don't have to use this gun
-------------------------------

    Lirycs SweetLirycs SweetLirycs Sweet
    The Sweet
      



    Написать администратору сайта
     

     

Российский фан сайт The Sweet 2008 © 2017