The Sweet


The Sweet



Партнеры
 
La Dolly Vita
 
La Dolly Vita

By: Smashing Pumpkins

Transcribed by: Rowland Chambers

This is my first attempt at tabbing, sorry for any screw ups. This sounds right to me, when I play it
the cd, but I could still be wrong.

Tuning is standard

Rhythm Guitar

----------------------------------------------------------------------|
----------------------------------------------------------------------|
----------------------------------------------------------------------|
---3-/-5-5----3-/-5-5-5-----------------------------------------------|
---3-/-5-5----3-/-5-5-5-----------------------------------------------|
---1-/-5-5----1-/-3-3-3-----------------------------------------------|


And this is the solo


----------------------------------------------------------------------|
---6/8~ 6/8-10-12h13(12)-10/12-108-86-65-53-21/3----------------|
----------------------------------------------------------------------|
----------------------------------------------------------------------|
----------------------------------------------------------------------|
----------------------------------------------------------------------|

Thats about all of it I know, execept there is this part that is
using a slide but i donmt have onew and i dont know it.

    Lirycs SweetLirycs SweetLirycs Sweet
    The Sweet
      



    Написать администратору сайта
     

     

Российский фан сайт The Sweet 2008 © 2017