The Sweet


The Sweet



Партнеры
 
Jellybelly
 
Tune Down 1/2 Step and Drop D: Db Ab Db Gb Bb Eb

Chord Fingerings:
G C D D(2) F# B A
E| x x x x x x x
B| x x x x x x x
G| x 5 7 x x 4 x
D| 5 5 7 0 4 4 7
A| 5 3 5 0 4 2 7
E| 5 x x 0 4 x 7

Fig 1
|-----------------------------------------------|
|-----------------------------------------------|
|-----------------------------------------------|
|-5-4-0-5-4-0-5-4-0-5-4-0-5-4-0-0---------------|
|-5-4-0-5-4-0-5-4-0-5-4-0-5-4-0-0---------------|
|-5-4-0-5-4-0-5-4-0-5-4-0-5-4-0-0-0-0-0-0--19---|

Fig 2
D C D C G
|-----------------------|
|-----------------------|
|------5--7-7-5---------|
|-0-0--5--7-7-5-5-5-----|
|-0-0--3--5-5-3-5-5-----|
|-0-0-----------5-5-----|

Fig 3
|-----------------------|
|-----------------------|
|--7--9--11---14-14-----|
|-----------------------|
|--5--7---9---12-12-----|
|-----------------------|

Fig 4
|--------------------------------------------|
|--------------------------------------------|
|--7-9--7-----9---7------7-9--7---9--11------|
|---------7----------7------------7--9-------|
|--------------------------------------------|
|--------------------------------------------|Intro
Fig 1 >4x

Verse
Fig 2 >4x
A C Fig 2
welcome to nowhere fast
A C Fig 2
nothing here ever lasts
A C Fig 2
nothing but memories
A C
of what never was

Chorus
D C G Fig 3
we're nowhere, we're nowhere, we're nowhere to be
D C G Fig 2 >4x
nowhere, you're nowhere, you're nowhere to see

Verse
A C Fig 2
living makes me sick
A C Fig 2
so sick I wish I'd die
A C Fig 2
down in the belly of the beast
A C
I can't lie

Chorus
D C G Fig 3
we're nowhere, we're nowhere, we're nowhere to be
D C G Fig 2 >3x (add Fig 4)
nowhere, you're nowhere, you're nowhere to see

Bridge
F# B D(2) G
there's nothing left to do
F# B D(2) G
there's nothing left to feel
F# B D(2) G
doesn't matter what you want, so

slide up low E string cromatically
then play Fig 2 >4x adding something similar to Fig 4

A C D
to make yourself feel better
A C D
you make it so you'll never
A C D
give in to your forevers
A C D
and live for always

Chorus
D C G Fig 3
and forever, forever, you're forever to be, to be
D C G Fig 2 >4x
forever, forever, you're forever to me, to me

End on Fig 1

    Lirycs SweetLirycs SweetLirycs Sweet
    The Sweet
      



    Написать администратору сайта
     

     

Российский фан сайт The Sweet 2008 © 2017