The Sweet


The Sweet



Партнеры
 
Israels Son3
 
Israel's son
Silverchair
Tabbed by: KoRny Freak
Tuning = Drop D

Intro w/dist.
PM- - - - | PM- - - |PM- - - -|
|----------|---------|---------|-----------|
|----------|---------|---------|-----------|
|----------|---------|---------|-----------|
|----------|---------|---------|-3---------|
|--5-5-5-5-|-5-5-5-5-|-5-5-5-5-|-3---------|
|--0-0-0-0-|-0-0-0-0-|-0-0-0-0-|-3---------|

Verse
PM-| PM-| PM-| PM-|
|-----------------|-----------------|-----------------|--------------|
|-----------------|-----------------|-----------------|--------------|
|-----------------|-----------------|-----------------|--------------|
|-----------------|-----------------|-----------------|--------------|
|0-0-3---3-0-3---5|0-0-3---0-3h5-3h5|0-0-3---3-0-3---5|0-0-3--3-0-5-5|
|0-0-3h5---0-3h5--|0-0-3h5-0-3h5----|0-0-3h5---0-3h5--|0-0-3h5--0-5-5|

Chorus 1 x3
||------------------||-----------------|
||o----------------o||-----------------|
||------------------||-----------------|
||------------------||-----------------|
||o-0-0-5-3--0-2-3-o||-1-1-1-1/6-6-6-6-|
||--0-0-5-3--0-2-3--||-1-1-1-1/6-6-6-6-|

Interlude
Gtr 1.
Harm. - - - - - - - - - - - - | fdbk.
|------------|---------|-----------|------(x)-----------|
|----------7-|-------7-|-------7---|--------------------|
|----------7-|-------7-|-----7-----|--------------------|
|-0----------|---------|-----------|--------------------|
|-0----------|---------|-----------|--------------------|
|-0----------|---------|-----------|---------------12--|
|
|Gtr.2 fdbk. - - - |
|------------|---------|------(x)--|--(x)---------------|
|------------|---------|-7---------|--------------------|
|------------|---------|-7---------|--------------------|
|-0----------|---------|-7---------|--------------------|
|-0----------|---------|-----------|--------------------|
|-0----------|---------|-----------|--------------------|


fbbk. -| Harm. -| fdbk.
|-----(x)----|---------|-----------|--------------------|
|-7----------|-7-------|-----------|-7-------x/x-------|
|-7----------|-7-7-----|-----------|-7------------------|
|------------|---7--5--|-----------|--------------------|
|------------|------5--|-----------|--------------------|
|------------|---------|-----------|---------------12--|
|
| Harm. Harm. - - - - - |
|------------|---------|-7---------|--------------------|
|-7----------|---------|-----------|--------------------|
|-7------0---|-0-7---7-|---5-------|--------------------|
|-7------0---|---7---7-|-------0---|----xx/------------|
|------------|------4--|-------0---|----xx/------------|
|------------|---------|-----------|--------------------|

Chorus 2 x3
||------------------||------------------|-----------------|
||o----------------o||------------------|-----------------|
||------------------||------------------|-----------------|
||------------------||------------------|-----------------|
||o-0-0-5-3--0-2-3-o||-1-1-1-1/6-6-6-6-|-1-1-1-1/6-6-6-6-|
||--0-0-5-3--0-2-3--||-1-1-1-1/6-6-6-6-|-1-1-1-1/6-6-6-6-|

|----------------|---------------------||
|----------------|---------------------||
|----------------|---------------------||
|--0-------------|---------------------||
|--0-------------|---------------------||
|--0-------------|---------------------||

Outro
PM-| x3 PM-|
||----------------------||---------------------------|
||o--------------------o||---------------------------|
||----------------------||---------------------------|
||----------------------||---------------------------|
||o-0-0-5-3--------3-5-o||-0-0-5-3--------2b(1/2)r-0-|
||--0-0-5-3--0-3h5---5--||-0-0-5-3--0-3h5------------|

Then when Daniel starts screaming, keep repeating this
until the song ends
PM-|
||----------------------||
||o--------------------o||
||----------------------||
||----------------------||
||o-0-0-5-3--------3-5-o||
||--0-0-5-3--0-3h5---5--||

Gtr 1. Harm.
|-----------|-------------|---------------------||
|-----------|-7-----------|---------------------||
|-----------|-7-----------|---------------------||
|--0--------|-------------|-0-------------------||
|--0--------|-------------|-0-------------------||
|--0--------|-------------|-0-------------------||
|
|Gtr2.
|-----------|-------------|---------------------||
|-----------|-------------|---------------------||
|-----------|-------------|---------------------||
|--0--------|--------0----|-0-------------------||
|--0--------|--------0----|-0-------------------||
|--0--------|--------0----|-0-------------------||

    Lirycs SweetLirycs SweetLirycs Sweet
    The Sweet
      



    Написать администратору сайта
     

     

Российский фан сайт The Sweet 2008 © 2017