The Sweet


The Sweet



Партнеры
 
Israels Son1
 
Dropped D Tunning


Key
pm = palm mute
h = hammer on
p = pull off
/ = slide up to
= slide down to
<#> = natural harmonic
x = play muted string


Intro

pm - -| pm - -| pm - -|
e|-----------------------------------|
B|-----------------------------------|
G|-----------------------------------|
D|-----------------------------3-----|
A|--5-5-5-5--5-5-5-5--5-5-5-5--3-----|
D|--0-0-0-0--0-0-0-0--0-0-0-0--3-----|

Verse

pm-| pm-| pm-|
e|-------------------------------------------------------------
B|-------------------------------------------------------------
G|-------------------------------------------------------------
D|-------------------------------------------------------------
A|--0-0-3---3-0-3---5--0-0-3---3-0-3---3h5--0-0-3---3-0-3---5--
D|--0-0-3h5---0-3h5----0-0-3h5---0-3h5------0-0-3h5---0-3h5----

pm-|
e|-------------------|
B|-------------------|
G|-------------------|
D|-------------------|
A|--0-0-3---3-0-5-5--|
D|--0-0-3h5---0-5-5--|






Chorus

e|-------------------------------------------------------------|
B|-------------------------------------------------------------|
G|-------------------------------------------------------------|
D|-------------------------------------------------------------|
A|--0-0-5-3-0-2-3-0-0-5-3-0-2-3-0-0-5-3-0-2-3-1-1-1-1/6-6-6-6--|
D|--0-0-5-3-0-2-3-0-0-5-3-0-2-3-0-0-5-3-0-2-3-1-1-1-1/6-6-6-6--|

Interlude

gtr 1
fdbk. fdbk.
e|-------------------------x-----------x--------------------------
B|------<7>--<7>------<7>----------<7>---<7>-----------<7>--xx--
G|--0---<7>--<7>--<7>--------------<7>---<7>-<7>-------<7>--------
D|--0----------------------------------------<7>-<5>--------------
A|--0-------------------------12/----------------<5>--------------
D|----------------------------------------------------------------

e|-------------|
B|--<7>--xx/--|
G|--<7>--------|
D|-------------|
A|-------------|
D|-------------|

gtr 2
fdbk.
e|------<7>--x--x-------------------------------<7>-------
B|------<7>----------<7>-------------------<7>------------
G|------<7>----------<7>--0--0--<7>--------<7>-------<5>--
D|--0----------------<7>--0-----<7>-----------------------
A|--0---------------------------------<4>-----------------
D|--0-----------------------------------------------------

e|-----------|
B|-----------|
G|-----------|
D|--0--xx/--|
A|--0--xx/--|
D|-----------|

Outro

pm-| pm-| pm-|
e|---------------------------------------------------------|
B|---------------------------------------------------------|
G|---------------------------------------------------------|
D|---------------------------------------------------------|
A|-0-0-5-3-------3-5--0-0-5-3-------3-5--0-0-5-3-------3-5-|
D|-0-0-5-3-0-3h5---5--0-0-5-3-0-3h5---5--0-0-5-3-0-3h5---5-|

e|------------------------|
B|------------------------|
G|------------------------|
D|------------------------|
A|-0-0-5-3-------2h3p2-0--|
D|-0-0-5-3-0-3h5----------|

End on this

e|---------------------------------|
B|---------------<7>---------------|
G|---------------<7>---------------|
D|--0---------------------------0--|
A|--0---------------------------0--|
D|--0---------------------------0--|

    Lirycs SweetLirycs SweetLirycs Sweet
    The Sweet
      



    Написать администратору сайта
     

     

Российский фан сайт The Sweet 2008 © 2017