The Sweet


The Sweet



Партнеры
 
In My Life1
 
Intro:

E-----5---------4---4-
B-2------2-3-5--5-5---
G---2-----------------
D--------------------- play 2x
A-0------0------------
E---------------0-----

Verse:

E----0-----0----2--1----
B-0--0--0--2----3--3--2- plucking
G-2--2--2--2----2--2--2-
D-2--2--2-------0--0--2- play 2x
A-0-------------------0-
E----4--2--0------------

E-2--2--2--1-----
B-2--2--3--3--2-- plucking
G-2--2--2--2--2--
D-2--4--0--0--2-- play 2x
A-4--2--------0--
E-2--------------

Adlib:

E----0-----0----2--1----
B-0--0--0--2----3--3--2- plucking
G-2--2--2--2----2--2--2-
D-2--2--2-------0--0--2- play 2x
A-0-------------------0-
E----4--2--0------------

Outro:

E-----5------------4--|----1--------
B-2------2-3-5-5------|---3-----2---
G---2------------2----|--2-----2----
D---------------------|-0-----2-----
A-0------0------------|------0------
E--------------0------|-------------

E----5---------4-|--------5-------
B-2------2-3-5-5-|--2-4-5-2-------
G---2------------|--------2-------
D----------------|--2-----2-------
A-0------0-------|--------0-------
E--------------0-|----------------

    Lirycs SweetLirycs SweetLirycs Sweet
    The Sweet
      



    Написать администратору сайта
     

     

Российский фан сайт The Sweet 2008 © 2017