The Sweet


The Sweet



Партнеры
 
Ill Be2
 
******************************************************************************
Song title: I'll Be (Acoustic Version ni Paolo Santos)
Artist: Paolo Santos
Tabbed By: John Menard De Vera
September 30, 2003
******************************************************************************
Mga Tol,first time ko pa lang magsubmit ng tab pero sure ako dito.Yung Mga ibang tab kasi
may mga sabit.Notre Dame Of Greater Manila Far Eastern University and Banda ni Dick Rules!!
Kung my questions EMAIL nyo ko at JeraizenMarilyn@yahoo.com or text at 09167831409.Pasensiya
na kung may mga mali sa paningin nyo..tao lang ako at nagkakamali.Yung Intro
medyo accurate basta timingan nyo na lang. Mga tol paki rate na lang..
Lets Go Tamaraw Lets Go!!!

Note: EAD - Use your pullguard (hinlalaki)
G - index
B - middle (pang finger nyo)
e - Anular (Ring)

Intro:
-----

e|--------0---------0------!-------------0----------0------0------------|
B|-----0---------0------0--!---------0----------0------0-------0--------|
G|---8---------8------8----!-------6----------6------6-------6----------|
D|-------9--------9--------!-----------7----------7------7--------------|
A|-------------------------!--------------------------------------------|
E|-7---------7-------------!-7--5----------5----------------------------|



e|-------0-----!Repeat 4x then -------0-------!-------!
B|-----0---0---! -----0---0-----!-----0-!
G|---8-------8-! ---6-------6---!---6---!
D|-------------! ---------------!-------!
A|-------------! ---------------!-------!
E|-7-----------! -5-------------!-5-----!

Part 1: Verse

e!-------0--------------0-----!---------0--------------0-----|
B!-----0---0----------0---0---!-------0---0----------0---0---|
G!---8-------8------8-------8-!-----9-------9------9-------9-|
D!----------------------------!------------------------------|
A!----------------------------!---7-------------7------------|
E!-7--------------7-----------!------------------------------!

e|--------0-------------0-----!---------0--------------0-----!
B|------0---0---------0---0---!-------0---0----------0---0---!
G|----8-------8-----8-------8-!-----3-------3------1-------1-!
D|----------------------------!------------------------------!
A|----------------------------!------------------------------!
E|-7--------------7-----------!---2-------------0------------!

Part 2: Refrain

e|-------0--------------0---------------0--------------0-----!
B|-----0---0----------0---0-----------0---0----------0---0---!
G|---8-------8------3-------3-------1-------1------3-------3-!
D|-----------------------------------------------------------!
A|-----------------------------------------------------------!
E|-7--------------2---------------0-------------2------------!

Part 3: Instead Of The Gallows..

e --------0---------------0--------------0--------------0-----!
B ------0---0-----------0---0----------0---0----------0---0---!
G ----6-------6-------6-------6------3-------3------3-------3-!
D ------------------------------------------------------------!
A ------------------------------------------------------------!
E -5---------------5--------------2-------------2-------------!

--------0----------------0-------------0--------------0-----!
------0---0------------0---0---------0---0----------0---0---!
----1-------1--------1-------1-----3-------3------3-------3-!
------------------------------------------------------------!
------------------------------------------------------------!
--0----------------0-------------2--------------2-----------!

Chorus: Repeat nyo na lang yung sa verse..
Bridge: Repeat nyo na lang yung Part 3..


Lyrics:
------

Part 1: The strands in your eyes that color them wonderfull
Stop me and steal my breath
Part 1: Emeralds from mountains thrust towards the sky
Never revealing their depth
Part 2: Tell me that we belong together
Part 2: Dress it up with the trappings of love
Part 2: I'll be captivated, I'll hang from your lips
Part 3: Instead of the gallows of heartache that hang from above

Part 1: And I'll be your crying shoulder
I'll be loves suicide
Part 1: I'll be better when I'm older
I'll be the greatest fan of your life...

Part 1: Rain falls angry on the tin roof
As we lie awake in my bed
Part 1: You're my survival, you're my living proof
My love is alive not dead
Part 2: Tell me that we belong together
Part 2: Dress it up with the trappings of love
Part 2: I'll be captivated, I'll hang from your lips
Part 3: Instead of the gallows of heartache, that hang from above

Part 1: And I'll be your crying shoulder
I'll be loves suicide
Part 1: I'll be better when I'm older
I'll be the greatest fan of your life...

Part 3: And I've dropped out, burned up, fought my way back from the dead
Part 3: Tuned in, turned on, remembered the thing that you said...

Part 1: And I'll be your crying shoulder
I'll be loves suicide
Part 1: I'll be better when I'm older
I'll be the greatest fan of your life...

    Lirycs SweetLirycs SweetLirycs Sweet
    The Sweet
      



    Написать администратору сайта
     

     

Российский фан сайт The Sweet 2008 © 2017