The Sweet


The Sweet



Партнеры
 
Ill Be
 

INTRO: B-A-B----A---

|----------0----------0-------------------------0---------|
|-------------------------0------------------0------------|
|------8--------8-8-----8-----8---------6-6---------------|
|----9----------9-9-9-----------9/---7--7-7---------------|
|---------------------------------------------------------|
|--7----------7-----------------7/---5--------------------|

|-----------------------0------------0------------0-------|
|--0-------0-----------------------------0------------0---|
|--6-----6-----6------6---6--------8---8--------8---8-----|
|------7-----7------7------------9------------9-----------|
|---------------------------------------------------------|
|----5------------5----------5-7------------7-------------|

|--------0------------0-------------0-----------0-----------0-----|
|------------0--------------------------0-----------0---------0---|
|------8---8--------8---8---------6---6-------6---6-------6--6----|
|----9------------9-------------7-----------7-----------7---------|
|-----------------------------------------------------------------|
|--7------------7-----------7-5-----------5-----------5---------5-|



Stanza: B-—E—-B—-E-- (2X)

Note:Sa version ni Edwin McCain, ang chords ng stanza ay
B--E--B--F#-E-, magkaiba talaga kahit pakinggan nyo!!!

|-------0-----------0------------0------------0----------|
|-----------0-----------0------------0------------0------|
|-----8---8-------8---8--------9---9--------9---9--------|
|---9-----------9------------9------------9--------------|
|--------------------------7------------7----------------|
|-7-----------7------------------------------------------|

|--------0------------0----------------------------------|
|------------0------------0--------0-------------0-------|
|------8---8--------8---8--------1-----1-------1-----1---|
|----9------------9------------2-----2-------2-----2-----|
|--------------------------------------------------------|
|--7------------7------------0-------------0-------------|


Refrain: B-F#-E-F# (3X)
B—-F#--E—F-- (two counts every note)

Note: Yung Refrain pareho lang ng chords sa version ni Edwin McCain

|-------0------------0------------0-------------0---------|
|-----------0------------0------------0-------------------|
|-----8---8--------3---3--------1---1---------3-----------|
|---9------------4------------2-------------4-------------|
|---------------------------------------------------------|
|-7------------2------------0-------------2--------2/-----|

|-------0------------0------------0-------------0---------|
|-----------0------------0------------0-------------------|
|-----8---8--------3---3--------1---1---------3-----------|
|---9------------4------------2-------------4-------------|
|---------------------------------------------------------|
|-7------------2------------0-------------2--------2/-----|

|-------0------------0------------0-------------0---------|
|-----------0------------0------------0-------------------|
|-----8---8--------3---3--------1---1---------3-----------|
|---9------------4------------2-------------4-------------|
|---------------------------------------------------------|
|-7------------2------------0-------------2--------2/-----|

|-------0------------0------------0------------0----------|
|-----------0------------0------------0------------0------|
|-----8---8--------8---8--------3---3--------3---3--------|
|---9------------9------------4------------4--------------|
|---------------------------------------------------------|
|-7------------7------------2------------2----------------|

|--------0------------0--------------0--------------------|
|------------0------------0--------0---0------------------|
|------1---1--------1---1--------3-------3----------------|
|----2------------2------------4--------------------------|
|---------------------------------------------------------|
|--0------------0------------2----------------------------|



Chorus: B--E--B--E-F#- (2X)

NOTE:Yung chords ni Paolo Santos sa chorus ay B—-E—-B-—E-F#-
sa version naman ni Edwin McCain B--E--B—-F#-E-
sana napansin nyo rin kayo nalang ang bahala pero sa tab na ito
sundin natin yung version ni paolo santos.


|-------0-----------0------------------------------------|
|-----------0-----------0--------0---0---------0---0-----|
|-----8---8-------8---8--------1---1---------1---1-------|
|---9-----------9------------2-------------2-------------|
|--------------------------------------------------------|
|-7-----------7------------0-------------0---------------|

|--------0------------0-------------------------0--------|
|------------0------------0--------0---0-----------------|
|------8---8--------8---8--------1---1--------3---3------|
|----9------------9------------2------------4------------|
|--------------------------------------------------------|
|--7------------7------------0------------2--------------|


INTERLUDE:

|-------0-----------0-----------0----------0---------|
|-----------0-----------0----------0-----------0-----|
|-----8---8-------8---8-------9--9-------9---9-------|
|---9-----------9-----------9----------9-------------|
|-------------------------7----------7---------------|
|-7-----------7--------------------------------------|

|---------0-----------0---------0--------------------|
|-------0-----------0---------------0-------0--------|
|-----8-----8-----8-----8-----1---1-------3----------|
|---9-----------9-----------2-----------4------------|
|----------------------------------------------------|
|-7-----------7-----------0-----------2--------------|



Stanza 2: (Do stanza 1 chords)

|-------0--------------------0-----------0-----------|
|-----------0--------------------0-----------0-------|
|-----8---8----------------9---9-------9---9---------|
|---9--------------------9-----------9---------------|
|----------------------7-----------7-----------------|
|-7------------7pause--------------------------------|

|-------0------------0---------------0---------------|
|-----------0------------0-------0-----------0-------|
|-----8---8--------8---8-------1---1-------1---1-----|
|---9------------9-----------2-----------2-----------|
|----------------------------------------------------|
|-7------------7-----------0-----------0-------------|

|-------0-----------0------------0------------0----------|
|-----------0-----------0------------0------------0------|
|-----8---8-------8---8--------9---9--------9---9--------|
|---9-----------9------------9------------9--------------|
|--------------------------7------------7----------------|
|-7-----------7------------------------------------------|

|--------0------------0--------------------------0-------|
|------------0------------0--------0-------------0-------|
|------8---8--------8---8--------1-----1-------1---------|
|----9------------9------------2-----2-------2-----------|
|--------------------------------------------------------|
|--7------------7------------0-------------0-------------|


Repeat Refrain except last part

|-------0------------0------------0------------0----------|
|-----------0------------0------------0------------0------|
|-----8---8--------8---8--------3---3--------3---3--------|
|---9------------9------------4------------4--------------|
|---------------------------------------------------------|
|-7------------7------------2------------2----------------|

|--------0------------0------------0------0---------------|
|--------0---0--------0---0--------0------0---------------|
|------1---1--------1---1--------3-----3------------------|
|----2------------2------------4-----4----4---------------|
|---------------------------------------------------------|
|--0------------0------------2----------------------------|


Chorus 2:
halos pareho lang ng chorus 1 pero may nadagdag na F# sa
second line ng chorus 2
Magiging ganito ang chords nya
B--E--B--E-F#- E F#
B--E-F#-E-F#- d2 nagkaroon ng F#(better when I’m older)
B---- (4 counts)



BRIDGE: G#m--F#--E----
G#m--F--E----F#-
|------------------------------------------------------|
|-------4-------------4------------2------------2------|
|-----4-----4-------4-----4------3-----3------3-----3--|
|---6-----6-------6-----6------4-----4------4-----4----|
|------------------------------------------------------|
|-4-------------4------------2------------2------------|

|--------0-----------0-----------0-----------0---------|
|--------0-----------0-----------0-----------0---------|
|------1-----1-----1-----1-----1-----1-----1-----1-----|
|----2-----2-----2-----2-----2-----2-----2-----2-------|
|------------------------------------------------------|
|--0-----------0-----------0-----------0---------------|

|------------------------------------------------------|
|-------4-------------4------------2------------2------|
|-----4-----4-------4-4---4------3-----3------3-----3--|
|---6-----6-------6-----6------4-----4------4-----4----|
|------------------------------------------------------|
|-4-------------4------------2------------2------------|

kayo na bahala magpaarte sa part n2
|---------0---------------------------------------------0----|
|-------0-----------0----------0-----------0--------------0--|
|-----1-----1-----1-----1----1-----1-----1-----1------3------|
|---2-----------2-----2----2-----2-----2-----2------4--------|
|------------------------------------------------------------|
|-0-----------0-----------0----------0------------2----------|



Last Chorus: (Do Chorus 1 pattern)

B--E--B--E-F#-
B--E--B--E(hold)-F#(hold)



Outro:

|--------0------------0------------------------------|
|------------0------------0--------0-----------0-----|
|------8---8--------8---8--------1-----1-----1-----1-|
|----9------------9------------2-----2-----2-----2---|
|----------------------------------------------------|
|--7------------7------------0-----------0-----------|



|--------0------------0------------------------------|
|------------0------------0--------0----------0------|
|------8---8--------8---8--------1-----1----3--------|
|----9------------9------------2-----2-----4---------|
|----------------------------------------------------|
|--7------------7------------0-----------2-------2/--|

|--------0------------0------------------------------|
|------------0------------0--------0-----------0-----|
|------8---8--------8---8--------1-----1-----1-----1-|
|----9------------9------------2-----2-----2-----2---|
|----------------------------------------------------|
|--7------------7------------0-----------0-----------|

slow hold
|----------0----------0---------------0---0--------------0-|
|--------0----------0--------------0--0---0--------------0-|
|------8-----8----8-------8------1----1---3-----------8--8-|
|----9------------------9------2------2---4-4/------9----9-|
|-----------------------------------------4-4/----9------9-|
|--7-----------7-------------0------------2-2/--7--------7-|


SANA MABUO na uli yung BANDA nmn nagwatak watak na kasi
Sa sobrang busy sa pag aaral at trabaho…

    Lirycs SweetLirycs SweetLirycs Sweet
    The Sweet
      



    Написать администратору сайта
     

     

Российский фан сайт The Sweet 2008 © 2017