The Sweet


The Sweet



Партнеры
 
Honey Spider
 
Here's the tablature of a really cool song, Honey Spider. I think it's pretty close.
So here it is

Honey Spider
by Smashing Pumpkins

E ----5--5-5-------------------| |----5------|
A -------------7-/-3--3-3-----| |------------|
D --------------------------5---| |-----------|
G ------------------------------| |-----------|
Many times Then : Honey Spider

E ----5--5-5---------------------|---5--5-5------------------|
A -------------7-/-3--3-3-------|------------7-/-2---3------|
D ---------------------------5----|-------------------------5--|
G --------------------------------|-----------------------------|
That is it :)


    Lirycs SweetLirycs SweetLirycs Sweet
    The Sweet
      



    Написать администратору сайта
     

     

Российский фан сайт The Sweet 2008 © 2017