The Sweet


The Sweet



Партнеры
 
Here Is No Why
 
Song: Here Is No Why
Band: Smashing Pumpkins
Album: Mellon Collie And The Infinite Sadness
Words And Music by Billy Corgan.
Straight out the official book,
this IS a perfect tab.
All guitairs half a step down (Eb,Ab,Db,Gb,Bb,Eb).
The solo gave me a bit of heart attack too but - its right.

Intro:
Guitar1:Eb--0-----------0-----------0------------------------------|
Bb--2--x--x-----2--x--x-----2--x--x------------------------|
Gb--1--x--x-----1--x--x-----1--x--x-----2-4-2-1--2-1--2/4--|
Db--2--x--x-----2--x--x-----2--x--x------------------------|
Ab--0--x--x--0--0--x--x--0--0--x--x------------------------|
Eb-----------------------------------0---------------------|


Guitar1:Eb--0----------2-------------|--0-----------------0--------|
Bb--0----------0-------------|--0-----------------3-----3--|
Gb--1----------1-------------|--1-----4--6--4-----2-----2--|
Db--2----------2-------------|--2-----x--x--x-----0--1--0--|
Ab--2----------2----------0--|--2--0--2--4--2--0-----0-----|
Eb--0--0-0--0--0--0--2/4-----|--0--------------------------|

Guitar2: E E9 E Dsus2


Verse1:
Guitar1:Eb--0-----------0-----------0-----------0------------|
Bb--2--x--x-----2--x--x-----2--x--x-----2--x--x------|
Gb--1--x--x-----1--x--x-----1--x--x-----1--x--x------|
Db--2--x--x-----2--x--x-----2--x--x-----2--x--x------|
Ab--0--x--x--0--0--x--x--0--0--x--x--0--0--x--x--0---|
Eb---------------------------------------------------|
useless boy

Guitar1:Eb--0----------2-------------|--0-----------0-----------|
Bb--0----------0-------------|--2--x--x-----2--x--x-----|
Gb--1----------1-------------|--1--x--x-----1--x--x-----|
Db--2----------2-------------|--2--x--x-----2--x--x-----|
Ab--2----------2----------0--|--0--x--x--0--0--x--x--0--|
Eb--0--0-0--0--0--0--2/4-----|--------------------------|
mascara

Guitar1:Eb--0-----------0--------|-----0--------------0-----------|
Bb--2--x--x-----2--x--x--|-----0--------------3-----3-----|
Gb--1--x--x-----1--x--x--|-----1--4--6--4-----2--1--2-----|
Db--2--x--x-----2--x--x--|-----2--x--x--x-----0--0--0-----|
Ab--0--x--x--0--0--x--x--|--0--2--2--4--2--0-----------0--|
Eb-----------------------|-----0--------------------------|
glitter forgot-

Chorus:
Guitar1:Eb-----|------------------------0--0--0----------------|
Bb-----|------------------------0--0--0----------------|
Gb--2--|------------------------1--1--1-----4-4-4-4-4--|
Db--2--|--4-------4--4/7--7-----2--2--2-----x-x-x-x-x--|
Ab-----|--4-------4--4/7--7-----2--2--2-----2-2-2-2-2--|
Eb-----|--2--0/2--2--2/5--5--0--0--0--0--0-------------|
-ten and in machines

Guitar1:Eb------------------------0--0--0----------------|
Bb------------------------0--0--0----------------|
Gb------------------------1--1--1-----4-4-4-4-4--|
Db--4-------4--4/7--7-----2--2--2-----x-x-x-x-x--|
Ab--4-------4--4/7--7-----2--2--2-----2-2-2-2-2--|
Eb--2--0/2--2--2/5--5--0--0--0--0--0-------------|
youull stay

Guitar1:Eb------------------------0--------------0--------|
Bb------------------------0--------------3-----3--|
Gb------------------------1-----4--6--4--2--1--2--|
Db--4-------4--4/7--7-----2-----x--x--x--0--0--0--|
Ab--4-------4--4/7--7-----2--0--2--4--2-----------|
Eb--2--0/2--2--2/5--5--0--0-----------------------|
desperate displeased you are...

Verse2:

Interlude:Eb---------------------------------------------|
Bb---------------------------------------------|
Gb--6--6-----6--6-----7--7-----------------9^--|
Db--6--6--x--6--6-----7--7-----7--7--7--7------|
Ab--4--4--x--4--4-----5--5--0--7--7--7--7------|
Eb--4--4--x--4--4--0--5--5--0--5--5--5--5------|
may the gloom
and if your in

Interlude:Eb-----------------------------------------------------------|
Bb-----------------------------------------------------------|
Gb--6--6-----6--6-----7--7-----9--9--9-----13/14--14/16--16--|
Db--6--6--x--6--6-----7--7-----9--9--9------x--x---x--x---x--|
Ab--4--4--x--4--4-----5--5--0--7--7--7-----11/12--12/14--14--|
Eb--4--4--x--4--4--0--5--5--0--0--0--0--0--------------------|
be doomed
then up

Solo:
Guitar1:Eb---------------------------------------------------------------------|
Bb--15b----------------------------------------------------------------|
Gb-------------------------15b--12h13-12-12h13p12------------------15--|b
Db-----16b-13-15-17h18-13^------------------------13h15p13--15p13------|
Ab---------------------------------------------------------------------|
Eb---------------------------------------------------------------------|

Eb--------------------------------------------------------------------|
Bb--19b---------------------------------------------------------------|
Gb------15/1713--------------------13h15p13-12h13p12-13h15-13b12-----|
Db---------------15/1713-13/15/18------------------------------------|
Ab--------------------------------------------------------------------|
Eb--------------------------------------------------------------------|

Guitar2:Eb--0-----------0--------------------------------|
Bb--0-----------3-----3--------------------------|
Gb--1--4/6/4----2--1--2--------------------------|
Db--2-----------0--0--0--------2-----9-----7-----|
Ab--2--2/4/2--0----------0--0--0--0--0--0--0--0--|
Eb--0--------------------------------------------|

Eb--0-----------0--------------------------------|
Bb--0-----------3-----3--------------------------|
Gb--1--4/6/4----2--1--2--------------------------|
Db--2-----------0--0--0--------2-----9-----7-----|
Ab--2--2/4/2--0----------0--0--0--0--0--0--0--0--|
Eb--0--------------------------------------------|

    Lirycs SweetLirycs SweetLirycs Sweet
    The Sweet
      



    Написать администратору сайта
     

     

Российский фан сайт The Sweet 2008 © 2017