The Sweet


The Sweet



Партнеры
 
Emotion Sickness1
 
Emotion Sickness - Silverchair
Tabbed by Jaymz Stevens (jstevo@hotmail.com)

Dropped D Tuning one step down (from low to high: Db-Ab-Db-Gb)

Ab|-----------------------1-1-1---0-0-0----|
Db|----0-0-0---3-3-3-----------------------| x2

Ab|---------------1-----0------1------1------1-----1------|
Db|---0-----3---------------------------------------------|

Ab|---------------1-----0------1------1------3-----3------|
Db|---0-----3---------------------------------------------|

Ab|---------------1-----0------1------1------1-----1------|
Db|---0-----3---------------------------------------------|

Ab|---------------1-----0------1------1------3-----3------|
Db|---0-----3---------------------------------------------|

Ab|-----------------------1-1-1---0-0-0----|
Db|----0-0-0---3-3-3-----------------------|

Ab|---------------1-----0------1------1------1-----1------|
Db|---0-----3---------------------------------------------|

Ab|---------------1-----0------1------1------3-----3------|
Db|---0-----3---------------------------------------------|

Ab|---0--------0-------------4-------------7------------|
Db|-----------------------------------------------------|

(Guitar and piano only) Burn my knees and (x3)
(Guitar distortion bit)

Ab|---5------------------3----------------0------------------|
Db|----------------------------------------------------------|

Ab|---5--------------------3---------|
Db|----------------------------------| x3

Ab|---0--------0-------------4-------------7------------|
Db|-----------------------------------------------------|

Ab|---5--------5------5---3-----3------3---|
Db|----------------------------------------| x2

Ab|---5--------5------5---1----1-2-----2--|
Db|---------------------------------------| x4

Ab|----------------------------2-----2-----0------0----|
Db|---0------0---0-----0-------------------------------| x4

Ab|---5-5-5-5-5-5-5-5-5-5-5-5-5-5-5-5-5-5-3-3-3-3-3-3-3-3-3-3-3-3-|
Db|---------------------------------------------------------------|

Ab|-----------------------1-1-1---0-0-0----|
Db|----0-0-0---3-3-3-----------------------| x3

Ab|----1-1-1---3-3-3---7-7-7-letring-----|
Db|--------------------------------------|

Ab|----5---5---5---5---|---2----2-----1------1----| x3
Db|--------------------|----------------------------|

Ab|---5--------------------3---------| x4

Ab|---5--------5------5---1----1-2-----2--| x4

    Lirycs SweetLirycs SweetLirycs Sweet
    The Sweet
      



    Написать администратору сайта
     

     

Российский фан сайт The Sweet 2008 © 2017