The Sweet


The Sweet



Партнеры
 
Disarm
 
Tabbed by Brian McCall

Disarm solo, as played on the various live versions of this
song,
although there are always slight variations.

|-----------------------------------------------------
|-8/10---10/12---12~----12---15---15---15-----15------
|------0-------0----0-0----0----0----0----0-0----0--0-
|-----------------------------------------------------
|-----------------------------------------------------
|-----------------------------------------------------

|--------------------------------------15--------15-----
|-8/10---10/12---12~----12---15---15-------15-------15--
|------0-------0----0-0----0----0----0---------0-------0
|-------------------------------------------------------
|-------------------------------------------------------
|-------------------------------------------------------

|-------------------------------------------------------
|-1715-----1513---13-12---12---12h13-12h13-12h13-12---
|-------0-0-------0-------0----0----------------------14
|-------------------------------------------------------
|-------------------------------------------------------
|-------------------------------------------------------

|-------------------------------------------------------
|-------------1715-----1513---13-12---12---12h13-12h13
|-12~-12-12---------0-0-------0-------0----0------------
|-----------0-------------------------------------------
|-------------------------------------------------------
|-------------------------------------------------------

|----------------------------------------------------
|-12h13-12--------------1715-----1513---13-12---12-
|----------14-12~-12-12-------0-0-------0-------0----
|----------------------------------------------------
|----------------------------------------------------
|----------------------------------------------------

|-15---15--------15b------------------------------------
|-15------15--------------------------------------------
|-12---------12-----------------------------------------
|(0)----------------------------------------------------
|-------------------------------------------------------
|-------------------------------------------------------
^strum slowly

    Lirycs SweetLirycs SweetLirycs Sweet
    The Sweet
      



    Написать администратору сайта
     

     

Российский фан сайт The Sweet 2008 © 2017