The Sweet


The Sweet



Партнеры
 
Dearest Helpless
 
Intro / Chorus
Now this is a tough one.
There are two versions, one easy one hard.
They both sound good.

HARD

G:------3------------------------3--------------------
D:----3---2-------5------------3---2-------5----5-6-5-
A:--1-----------4---4--------1-----------4---4--------
E:----------2-3-------3-3-3----------2-3--------------

EASY ( EASIER ANYWAY )

D:-----------------5------------------------5---5-6-5-
A:--1-1-1--------4---4-------1-1-1--------4---4-------
E:--------0--2-3-------3-3-3-------0--2-3-------------

VERSE

A:--1-1-1-1-2-2-2-2---------3-3-3-3-1-1-1-1---1-1-1-1-0-0--
E:------------------3-3-3-3--------------------------------

BRIDGE

A:--1----- --6-----
E:------2- x about 8 ------7-- about the same

    Lirycs SweetLirycs SweetLirycs Sweet
    The Sweet
      



    Написать администратору сайта
     

     

Российский фан сайт The Sweet 2008 © 2017