The Sweet


The Sweet



Партнеры
 
Crush
 
Title: Crush
Artist: Smashing Pumpkins
Album: Gish
Tuning: E A D G

Starts off with a cool bass intro
Riff 1
G|------------------3-------------------------------|
D|----------3-4-6------------6----------------------|
A|----3-4-6-------6---4----4------------------------|
E|4-6--------------------------4-4-4-4-4-4-4-4h4-4--|

On the last time play G# twice as long, then play:
Riff 2
G|-----------------------------|
D|--------3-4-6---6---6-6---6--|
A|--1-3-4----------------------|
E|2----------------------------|

Then play:
Riff 3
G|-------3--------------------------|
D|6---6-----------------------------|
A|6-6--6-----4-------------4/9--11--|
E|----------------------------------|

Go back and play Riff 1 a few more times.

Then play Riff 2, after that play:
G|---3--------------|
D|------------------|
A|6----4---6--4--6--|
E|------------------|

keep playing the C# and D#

Then go back to Riff 1, slow down at the end,
Then end on a Ab...and thats it.

--------------
Tab was made by: Nathan Amber, take it if you want it...just enjoy..
hope you like it!! E-mail me if you have a better way of playing it!

    Lirycs SweetLirycs SweetLirycs Sweet
    The Sweet
      



    Написать администратору сайта
     

     

Российский фан сайт The Sweet 2008 © 2017