The Sweet


The Sweet



Партнеры
 
Cicada1
 
#----------------------------------PLEASE NOTE---------------------------------#
#This file is the author's own work and represents their interpretation of the #
#song. You may only use this file for private study, scholarship, or research. #
#------------------------------------------------------------------------------##
CICADA by silverchair
Transcribed by Braamo (bpsmith@socs.uts.edu.au)


Introduction:

E / G A /
Change: C D


Verse:

E F# G A *
Change: E D# D C# C D

* = sometimes these chords are played as a baseline only.


Chorus:

E D A E G A
It's like a civil war ... GROWING UP!

until...

C D E D A
Growing up .......... It's like a civil war.


Solo chords:

A / C D / x 4
Bb / B / C / D / then intro chords.


Solo:

E-------------------------------------------|
B-------------------------------------------|
G-------------------------------------------|
D--12^--10------------------------------10--|
A-----------12--10--12^---10--10--(12)------|
E-------------------------------------------|

E------------------------------------------|
B------------------------------------------|
G------------------------------------------|
D--12^-12^-12^-12^-10----------------------|
A---------------------(12)-10-12-----------|
E------------------------------------------|

E--12^~~~~~~~~~~~~~~-----------------------|
B--------------------14-12-14--------------|
G-----------------------------14-12-14-----|
D------------------------------------------|
A------------------------------------------|
E------------------------------------------|

E------------------------------------------|
B------------------------------------------|
G------------------------------------------|
D--------------------12-(14)-12------------|
A--10-(12)-10--12---------------14-13^-----|
E------------------------------------------|

^ = bend
~~ = repeated

    Lirycs SweetLirycs SweetLirycs Sweet
    The Sweet
      



    Написать администратору сайта
     

     

Российский фан сайт The Sweet 2008 © 2017