The Sweet


The Sweet



Партнеры
 
Change The World
 
standard tuning: (EADGBE)

Intro:

E-----------0-|----------------
B---1-----0---|-0-0------------
G-------2-----|-----1-2-2-1----
D-----2-2-----|----------------
A---2---------|-2-2---2-2------
E-0-------0---|-----------0----

Verse:

E---------| -0--0--0-
B-0--0--0-| -2--3--2-
G-1--2--1-| -2--2--2-
D-2--2--2-|play 4x -2--2--2-play 2x
A-2--2--2-| -0--0--0-
E-0--0--0-| ---------

E---------|-------4-4-
B-0--0--0-|-0--0--4-4-
G-1--2--1-|-1--2--4-4-
D-2--2--2-|-2--2--6-4-
A-2--2--2-|-2--2--6-6-
E-0--0--0-|-0--0--4-4-

Chorus:

E-0--4--4---2--4--4-
B-2--4--5---2--4--5-
G-2--4--4---2--4--4-
D-2--4--6---2--4--6-
A-0--6--4---4--6--4-
E----4------2--4----

E-2--4--4322--|-0--4--432-|----
B-2--4--5432--|-2--4--432-|-4--
G-2--4--4322--|-2--4--432-|-4--
D-2--4--6544--|-2--4--434-|-4--
A-4--6--4322--|-0--6--654-|-2--
E-2--4-----------|----4--432-|----

Adlib:


E-----------0-|----------------
B---1-----0---|-0-0------------
G-------2-----|-----1-2-2-1----
D-----2-2-----|----------------
A---2---------|-2-2---2-2------
E-0-------0---|-----------0----

2nd chorus:

E-0--4--4---2--4--4----
B-2--4--5---2--4--5----
G-2--4--4---2--4--4----
D-2--4--6---2--4--6----
A-0--6--4---4--6--4----
E----4------2--4-------

E-2--4--4322--|-0--4--432-|----
B-2--4--5432--|-2--4--432-|-0--
G-2--4--4322--|-2--4--432-|-1--
D-2--4--6544--|-2--4--434-|-2--
A-4--6--4322--|-0--6--654-|-2--
E-2--4-----------|----4--432-|-0--

=====()w&_17=====

    Lirycs SweetLirycs SweetLirycs Sweet
    The Sweet
      



    Написать администратору сайта
     

     

Российский фан сайт The Sweet 2008 © 2017