The Sweet


The Sweet



Партнеры
 
Blue
 
Song Title: Blue (corrected version)
Artist: Smashing Pumpkins
----------------------------------------------

The Smashing Pumpkins - Blue
From the album 'Pisces Iscariot' and the 'Lull' ep.

Riff 1

E ---3/3---3---3/3---3---3/3---3---111-----|
A ---------------------------------------------3-|
D ------------------------------------------------|
G ------------------------------------------------|

Riff 2

E ------------------------------------------------|
A ---5------7------9------7---------------------|
D ------------------------------------------------|
G ------------------------------------------------|

Riff 3

E ---3-------3----------1------1---1---5---3-------3---3-------1---------|
A -------5------5---7------3---------------------5----------3--------------|
D ---------------------------------------------------------------------------|
G ---------------------------------------------------------------------------|


Riff 1 x8
Riff 2 x1
Riff 1 x8
Riff 2 x2
Bass Out 2
Riff 3 x7

    Lirycs SweetLirycs SweetLirycs Sweet
    The Sweet
      



    Написать администратору сайта
     

     

Российский фан сайт The Sweet 2008 © 2017