The Sweet


The Sweet



Партнеры
 
Black Tangled Heart1
 
*standard tuning* this is 100% correct...its traight out of the neon ballroom book

E-----------------0-----------------------------------------------0--------
B-----6--------------6------------1-----0 h1--------------------------0----
G--7-----7--------------7------2-------------0 h2--------------------------
D--8--------8--------------8--3-------------------3------0----2---------2-
A--8-----------8---------------3-----3-----------------3-------------------
E--6---------------------------1-----------------------------0-------------

E-------------------------------------------------------------------0--------
B----------0--------------0------------------0------------6------------6-----
G-------------0--------------0------------------0------7-----7------------7--
D--0h2-----------2-----2--------2---0h2------------0---8--------8-----------8
A-------2--------------------------------2-------------8-----------8---------
E-------------------0----------------------------------6---------------------

E----------------------------------------------------------------------
B-----1-----0-h2-------------------0-----------------------------0-----
G--2-------------0-h2------0----------0-------------0------------------
D--3------------------3---------2--------2---0-h2------2/42--------2--
A--3-----3---------------3------------------------2--------------------
E--1--------------------------0-------------------------------0--------

    Lirycs SweetLirycs SweetLirycs Sweet
    The Sweet
      



    Написать администратору сайта
     

     

Российский фан сайт The Sweet 2008 © 2017