The Sweet


The Sweet



Партнеры
 
As you can see
 
As you can see, it's quite an unorthodox song...it is TUNED DOWN A QUARTER STEP
(or 50 cents, or half a fret, however you want to say it) and it adds extra
measures here and there. I'll do my best to notate the structure of the song,
but you'll have to listen closely to the song to fully understand it. The tabs
written here should give you a good idea of what to play, if not how to play it.
It's in the key of C Major, in case you were wondering...

There are two parts tabbed out here...one is the lead guitar, and the other is
tabbed out for a rhythm guitar, although it is probably a bass guitar. The
rhythm parts (all two riffs of them) are surrounded by r's, in case you were
wondering. During the extra beat, the rhythm guitar just plays on the open G and
D strings. The timing is odd, but listen through it a few times and you'll get
it. Both parts are played with a heavy delay, strong chorus, and probably some
other crazy effects that I don't have. It all sounds very smooth and relaxing.


h - hammer on
p - pull off
/ - slide up
- slide down
T - tremolo pick
(8) - optional note



this is the often-repeated verse riff the lead starts in with this
r E|-----------------|------------------| r |------------------|
r B|-----------------|------------------| r |------------8-8-8/|
r G|--0--------------|----2------0------| r |------------------|
r D|0-------------0--|--3-----2---------| r |------------------|
r A|----------0-3----|----------------0-| r |------------------|
r E|-----------------|------------------| r |------------------|


E|------------------|--8p7-------------|------------------|------------------|
B|10----------------|-----------8/10---|------------------|------------8-8-8/|
G|------------------|------------------|------------------|------------------|
D|------------------|------------------|------------------|------------------|
A|------------------|------------------|------------------|------------------|
E|------------------|------------------|------------------|------------------|

extra beat
E|--------------|--8p7----------|-------------|---------------|---------------|
B|10------------|---------8/10--|-------------|---------------|--8------------|
G|--------------|---------------|-9-----------|---------------|---------------|
D|--------------|---------------|-------------|---------------|---------------|
A|--------------|---------------|-------------|---------------|---------------|
E|--------------|---------------|-------------|---------------|---------------|

x-beat
E|15---13-----12h13p12--10h12p10--8---|-----------------|----------|-12p10p8--|
B|-----------------|------------------|-----------------|----------|----------|
G|-----------------|------------------|---------10--9---|----------|----------|
D|-----------------|------------------|--10--9----------|----------|----------|
A|-----------------|------------------|-----------------|----------|----------|
E|-----------------|------------------|-----------------|----------|----------|

x-beat
E|--------------|12p10p8--10-12-|--------------|--------------|---------------|
B|--------------|---------------|---------8-10-|--------------|---------------|
G|--------------|---------------|--------------|--------------|---------------|
D|--------------|---------------|--------------|--------------|---------------|
A|--------------|---------------|--------------|--------------|---------------|
E|--------------|---------------|--------------|--------------|---------------|


then the chorus:
r E|-----------------|-----------------|-----------------|------------------| r
r B|---0--------0----|-0-------0-------|----0-------0----|--0------0--------| r
r G|-----0--------0--|---0-------0-----|------0-------0--|----0------0------| r
r D|-5------2-------3|-----------------|--5------2------3|------------------| r
r A|-----------------|-----------------|-----------------|------------------| r
r E|-----------------|-----------------|-----------------|------------------| r
{
E|-------12---------|------------------|---------12-------|------------------|
B|--12--------------|------------------|---12-------------|------------------|
G|------------------|------------------|------------------|---12-------------|
D|------------------|------------------|------------------|------------------|
A|------------------|------------------|------------------|------------------|
E|------------------|------------------|------------------|------------------|

E|-------12---------|------------------|---------12-------|------------------|
B|--12--------------|------------------|---12-------------|-----------8-8-8--|
G|------------------|---12-------------|------------------|------------------|
D|------------------|------------------|------------------|------------------|
A|------------------|------------------|------------------|------------------|
E|------------------|------------------|------------------|------------------|

back to verse
E|------------------|--8p7-------------|------------------|------------------|
B|-8/10-------------|---------8/10-----|------------------|----------8--8--8-|
G|------------------|------------------|--9---------------|------------------|
D|------------------|------------------|------------------|------------------|
A|------------------|------------------|------------------|------------------|
E|------------------|------------------|------------------|------------------|

E|------------------|--8--7------------|--10-----10/12----|----15------------|
B|-8/10-------------|--------8-/10-----|------------------|------------------|
G|------------------|------------------|------------------|------------------|
D|------------------|------------------|------------------|------------------|
A|------------------|------------------|------------------|------------------|
E|------------------|------------------|------------------|------------------|

E|-12---------------|------------------|------------------|------------------|
B|-----13---12--10--|----13---12-------|--12------15--13--|12----------------|
G|------------------|12----------------|------14----------|------------------|
D|------------------|------------------|------------------|------------------|
A|------------------|------------------|------------------|------------------|
E|------------------|------------------|------------------|------------------|

(tremolo pick, gradually increase speed)
E|--------------|---------------|---------------|-------------|---------------|
B|--------------|---------------|---------------|--12---------|-13--12---15---|
G|12T--------------T12----------|--10--9--------|-------------|---------------|
D|--------------|--------10--9--|---------------|-------------|---------------|
A|--------------|---------------|---------------|-------------|---------------|
E|--------------|---------------|---------------|-------------|---------------|

chorus(play same chorus riff over it):
E|------------12----|------------------|----------17------|------------------|
B|------------------|--12--------------|--12--------------|------------------|
G|-12---------------|------------12----|------------------|------------------|
D|------------------|------------------|------------------|------------------|
A|------------------|------------------|------------------|------------------|
E|------------------|------------------|------------------|------------------|


E|--------12--------|------------------|----------12------|------------------|
B|-12---------------|------------------|--12--------------|------------------|
G|------------------|--12--------------|------------------|--12--------------|
D|------------------|------------------|------------------|------------------|
A|------------------|------------------|------------------|------------------|
E|------------------|------------------|------------------|------------------|

(tremolo pick)
E|-----------------|-----------------|-----------------|----------------------|
B|-----------------|-----------------|-----------------|----------------------|
G|-----------------|-----------------|-----------------|-----/9-9-10-9h10p9---|
D|-10T-------------|-----------------|-----------------|-T10----------------10|
A|-----------------|-----------------|-----------------|----------------------|
E|-----------------|-----------------|-----------------|----------------------|

(fast part: enlarged to show detail)
E|-----------------------15-13-12-(13)|-12----------12-13-15-13---------------|
B|--------10--12-13-12----------------|----13-12-13-------------12-13-12------|
G|9-10-12-------------(12)------------|----------------------------------9--12|
D|------------------------------------|---------------------------------------|
A|------------------------------------|---------------------------------------|
E|------------------------------------|---------------------------------------|

E|-----------------------------------10|--------------------------------------|
B|-10---------------8-----10-----------|10-----------13---------12------------|
G|------------9------------------------|--------------------------------------|
D|-------------------------------------|--------------------------------------|
A|-------------------------------------|--------------------------------------|
E|-------------------------------------|--------------------------------------|

back to verse x-beat
E|10------------|-------------|-17------------|-----15--------|-(20p19p17)3x--|
B|----10--12--10|-------------|-----18--17--15|---------------|---------------|
G|--------------|-12----------|---------------|---------------|---------------|
D|--------------|-------------|---------------|---------------|---------------|
A|--------------|-------------|---------------|---------------|---------------|
E|--------------|-------------|---------------|---------------|---------------|

x-beat
E|--------------|-------------|---------------|---------------|-12-10h12p10---|
B|-12-----13----|-----------10|-----------13--|-12h13p12------|-------------13|
G|--------------|-------------|-10--9---------|-----------13--|---------------|
D|--------------|-------------|---------------|---------------|---------------|
A|--------------|-------------|---------------|---------------|---------------|
E|--------------|-------------|---------------|---------------|---------------|

    Lirycs SweetLirycs SweetLirycs Sweet
    The Sweet
      



    Написать администратору сайта
     

     

Российский фан сайт The Sweet 2008 © 2017