The Sweet


The Sweet



Партнеры
 
After All These Years
 
ntro

C#, F#, G#
C#, F#, G#
C#, F#, G#
C#, G#, F#,Bb

Piano arranged for guitar
|-----------------------|---------------------|
|-----------------------|---------------------|
|-10--------------------|---------------------|
|----11-13-11-----------|-11-10-10-8-8-6-8-10-|
|-11----------13--11-13-|---------------------|
|-------------14--------|---------------------|


|-----------------------|---------------------|
|-----------------------|---------------------|
|-10--------------------|---------------------|
|----11-13-11-----------|-11-10-10-8-8-6-8-10-|
|-11----------13--11-13-|---------------------|
|-------------14--------|---------------------|


|-----------------------|---------------------|
|-----------------------|---------------------|
|-10--------------------|---------------------|
|----11-13-11-----------|-11-10-10-8-8-6-8-10-|
|-11----------13--11-13-|---------------------|
|-------------14--------|---------------------|


|-----------------------|---------------------|
|-----------------------|---------------------|
|-10--------------------|---------------------|
|----11-13-11-----------|-11-10-10-8-8-6-8-10-|
|-11----------13--11-13-|---------------------|
|-------------14--------|---------------------|


|---------------------------|
|---------------------------|
|-10------------------------|
|----11-13-11-11-10-8-10----|
|-11------------------------|
|---------------------------|



|------------------------------------------------------------------------------|
|------------------------------------------------------------------------------|
|-11-9-7-----8-----------------8-----------------8-----------------8---8-------|
|----------6---6-7-9-11-12---6---6-7-9-11-12---6---6-7-9-11-12---6---6---6---6-|
|--------6-----------------6-----------------6-----------------6-----------6---|
|------------------------------------------------------------------------------|
..night ..sunrise ..day ..naivety

Breathe in the night
That crushed a tired sunrise
Born again the day
Brings young naivety

|------------------------------------|
|------------------------------------|
|------------------------------------|
|-----8-------9-------8-------9------|
|---6---6---7---7---6---6---7---7----|
|-6-------7-------6-------7----------|

A laptop souvenir is worth its weight
In silver a golden son
You'll be home again
And I'll be home again

|--------------------------------------------------------------|
|--------------------------------------------------------------|
|-11-9-7-----8-----------------8-----------------8-------------|
|----------6---6-7-9-11-12---6---6-7-9-11-12---6---6-7-9-11-12-|
|--------6-----------------6-----------------6-----------------|
|--------------------------------------------------------------|
..sleep ..water ..wake

Mend in my sleep
I'm boxing under water
Waddle on the wake
C#5 A
Waking on a summer day
C#5 G#
A summer day

C# Fm
After all these years
F# G#
Forget about all the troubled times
C# Fm
After all these years
F# G#
Forget about all the troubled times

F#,G#

|------------------------------------|
|------------------------------------|
|------------------------------------|
|-----8-------9-------8-------9------|
|---6---6---7---7---6---6---7---7----|
|-6-------7-------6-------7----------|

And every father's pain
Casts a shadow over a broken son
You'll be whole again
And I'll be whole again

|------------------------------------------------------------------------------|
|------------------------------------------------------------------------------|
|-11-9-7-----8-----------------8-----------------8-----------------8---8-------|
|----------6---6-7-9-11-12---6---6-7-9-11-12---6---6-7-9-11-12---6---6---6---6-|
|--------6-----------------6-----------------6-----------------6-----------6---|
|------------------------------------------------------------------------------|
..cent ..tic ..scared ..pawn

Munificent, artless and ascetic
Playing like a scared
Enthusiastic pawn

C# Fm
After all these years
F# G#
Forget about all the troubled times
C# Fm
After all these years
F# G#
Forget about all the troubled times
F# G#
The troubled times
C# F# G#
A___ll those years
C# F# G# C#
I was hurting to feel
F# G# C#
Something more than life

F#, G#
C#, F#, G#
C#, F#, G#
C#, G#, F#, F#m

C# Fm
After all these years
F# G#
Forget about all the troubled times
C# Fm
After all these years
F# G#
Forget about all the troubled times
F# G#
The troubled times
C# F# G#
A___ll those years
C# F# G# C#
I was hurting to feel
F# G# C#
Something more than life

    Lirycs SweetLirycs SweetLirycs Sweet
    The Sweet
      



    Написать администратору сайта
     

     

Российский фан сайт The Sweet 2008 © 2017