The Sweet


The Sweet



Партнеры
 
A Dogs Prayer
 
Song: A Dog's Prayer (Part of Pastichio Medley)
Found at 4:36 - 5:26.For those with tapes it is the 19th clip.
Artist: Smashing Pumpkins

Tabbed by Edward Davis - Jayday@bluesky.net.au

Well,this is my first TAB posted onto the Internet and you probably
know how to play it but if you don't here it is anyway! Hopefully, soon
we can have nearly all of the clips from Pastichio Medley Tabbed.


Dropped D tuning


----------------------------|
----------------------------|
----------------------------|
--0--0--0--3--3--3--4--4--4-|
--0--0--0--3--3--3--4--4--4-|
--0--0--0--3--3--3--4--4--4-|

This is the main riff and occassionally there is a variation where you
simply play this riff...but only with the Low D string and then gradually
bring in the A and the D string.


The other part of the riff goes like this:

--------------------------------------|
--------------------------------------|
--------------------------------------|
--5--5--5--5--5--5--------------------|
--3--3--3--3--3--3--5--5--5--5--5--5--|
--------------------5--5--5--5--5--5--|


Then there is this descent:

--7--7--6--6--5--5--4--4--3--3--2--4b--|
---------------------------------------|
---------------------------------------|
---------------------------------------|
---------------------------------------|
---------------------------------------|

Well there you go.Have fun!!!

    Lirycs SweetLirycs SweetLirycs Sweet
    The Sweet
      



    Написать администратору сайта
     

     

Российский фан сайт The Sweet 2008 © 2017